Mike's Demo 04.11.13 (Relative to 2nd Fret Capo)

(/) Slide Up  (\) Slide Down  (h) Hammer On  (p) Pull Off  (b) Bend (r) Release (v) Vibrato


E|-----------------------------------------------
B|--1--1--1--1--1--1--1--1--1--1--1--1--1--1--3--
G|-----------------------------------------------
D|--2--2--2--2--2--2--2--2--2--2--2--2--2--2-----
A|--3--3--3--3--3--3--3--3--3--3--3--3--3--3--2--
E|-----------------------------------------------



E|-----------------------------------------------------------------------------------
B|----------------------------------------3--3--3------------------------------------
G|----------------------------------------0--0--0----------0--------0----------------
D|--7--7--7--7--7--7--7--7--7--4--5--5----4--4--4-------2--------0-------------------
A|--4--4--4--4--4--4--4--4--4--2--2--2----5--5--5----3--------2--------0--2b3--0-----
E|--0--0--0--0--0--0--0--0--0--0--0--0--------------------------------------------3--



E|----------------------------------------------------------------------------3------------------------------------------
B|-----------------------------1--1--3--3--1----------------------------------0------------------------------------------
G|-----------------------------0--0--0--0--2----------0--------0--2--0--------0------------------------------------------
D|--------2--------2--------0--2--2--0--0--2-------2-----0--2-----------2--0--0------------0--2--2--0--------------------
A|-----2--------0--------2-----3--3--2--2--0----3-----------------------------2------0--2--------------2--0--2--0--------
E|--0--------2--------3-------------------------------------------------------3------------------------------------3--3--



E|-----------3--3--3--0--
B|--1--3--1--0--1--3--5--
G|--0--0--2--0--0--0--0--
D|--2--0--2--0--0--0--0--
A|--3--2--0--2--2--2--4--
E|-----------3--3--3--5--
http://www.guitartabcreator.com
Guitar Tab Creator is intended to store guitar tab created through the tool. It currently does not support in-line text editing. Any text you place in here will be lost. If you need to comment on your tab, please use the "Tab Notes" section located below.