LUCKY (Relative to Capo 2)

(/) Slide Up  (\) Slide Down  (h) Hammer On  (p) Pull Off  (b) Bend (r) Release (v) Vibrato


E|----------------------------------------------------------------------------------------------------
B|-------------------------------------------------------------------------------5--6--5--6--8--6--5--
G|-------------------------------------------------------------------------5-----5--7--5--7--9--7--5--
D|-------5--7--5--5\0-------5--7--5/0-------5--7--5--5/0-------5--5--7--7-----7-----------------------
A|--5/7----------------5\7-------------5\7----------------5\7-----------------------------------------
E|----------------------------------------------------------------------------------------------------



E|-------------------9------------------
B|--------------8b9-------9b8--5--------
G|--7b8----8b7--------------------7--5--
D|--------------------------------------
A|--------------------------------------
E|--------------------------------------



E|--------------2-----1--2--1----0----2-----1--2--1--
B|--8--6--5--3--3-----1--3--1----1----3-----1--3--1--
G|--9--7--5--4--2--0--2--2--2----0----2--0--2--2--2--
D|-----------------2--3-----3----2-------2--3-----3--
A|-----------------2-------------3-------2-----------
E|-----------------0---------------------0-----------



E|-----------------------------------------------3-----5-----7-----5--------12------15--12----------
B|---------------0--8--6----------------------5-----5-----8-----8-------15------15----------15--13--
G|------------5-----9--7--5----------2b3b2----------------------------------------------------------
D|-------5h7-----------------7--5-------------------------------------------------------------------
A|--0/7---------------------------------------------------------------------------------------------
E|--------------------------------------------------------------------------------------------------



E|---------------------------------------------------------------------0--
B|---------------------------------------------------------------------1--
G|--7b8--5-----5-------------------------------------------------------0--
D|----------7-----2--0----------------7--5-----------2--0--------------2--
A|----------------------3--0--3--0----------7--5--3--------3--0--3--0--3--
E|------------------------------------------------------------------------
http://www.guitartabcreator.com
Guitar Tab Creator is intended to store guitar tab created through the tool. It currently does not support in-line text editing. Any text you place in here will be lost. If you need to comment on your tab, please use the "Tab Notes" section located below.