LETTERS (Relative to 4th fret capo)

(/) Slide Up  (\) Slide Down  (h) Hammer On  (p) Pull Off  (b) Bend (r) Release (v) Vibrato


E|--2--7--2--5--3--2--------------------------
B|--3--8--3--5--3--3-------7\5-----5/3-----3--
G|--2--7--2--6--4--2--0--2/6-4--0--4-2--0--2--
D|--------------------------------------------
A|--------------------------------------------
E|--------------------------------------------



E|--------------------2--------------------2--3--2--3--2--3--
B|--------0--------0--3--------0--------0--3--3--3--3--3--3--
G|-----0--------0-----2-----0--------0-----2--0--2--0--2--0--
D|--2--------5-----------2--------5--------0--0-----0-----2--
A|-----------------------------------------0--2-----2-----3--
E|-----------------------------------------0--3-----3--------



E|---------10------10--12--10----------14------10------10--12--10---------------------
B|--10h12------12--------------12--10------10------12--------------12--10------10-----
G|-------------------------------------------------------------------------11---------
D|------------------------------------------------------------------------------------
A|------------------------------------------------------------------------------------
E|------------------------------------------------------------------------------------



E|--------------------------------------------------
B|------10--10------10--------------------------10--
G|--12----------11------9\7-------7--9b10b9--7------
D|-----------------------------9--------------------
A|--------------------------------------------------
E|--------------------------------------------------



E|----------------------------------------------------------------------
B|----------------------------------------------------------------------
G|----------------------------------------------------------------------
D|----------------------------------------------------------------------
A|--------5--5--5--7--9--7--5--------5--5--5--7--9--7--5--3----------5--
E|--5--7-----------------------5--7----------------------------5--7-----
http://www.guitartabcreator.com
Guitar Tab Creator is intended to store guitar tab created through the tool. It currently does not support in-line text editing. Any text you place in here will be lost. If you need to comment on your tab, please use the "Tab Notes" section located below.