LET ON (Relative to 4th Fret Capo

(/) Slide Up  (\) Slide Down  (h) Hammer On  (p) Pull Off  (b) Bend (r) Release (v) Vibrato


E|----0----0------0----------------7--7--5--
B|----3----5------7--------10------7--8--5--
G|----2----4------6--------9-------7--7--6--
D|------------------------------------------
A|------------------------------------------
E|------------------------------------------



E|-------------------0-----------------------------------------
B|----------------2-----2--------------------------------------
G|-------------1-----------1------------0----------------------
D|----------------------------5------5-----4\2r0--2--0---------
A|--0/5\2r0---------------------------------------------5\2r0--
E|-------------------------------------------------------------



E|--------0-------------------------------
B|-----2-----2----------------------------
G|--1-----------1----------0--------------
D|-----------------5----5-----4\2r0--2/5--
A|----------------------------------------
E|----------------------------------------



E|------------------------------------------------------------------------------------------------------3--
B|------------------------------------------------------------------------------------------------3--5-----
G|------------------------------------------------------------------------------0--2--0--2--2--4-----------
D|--------------------------7-----7---------------------------------------0--2-----------------------------
A|--7/9----9--7----7--9--9-----9-----7--7--9--9--7----7--9--9--7----0--2-----------------------------------
E|---------------------------------------------------------------------------------------------------------



E|------7--------10--12------12--14-------0-----2-----1-----0-------------3-----2-----0---------------
B|--10-------12----------14-----------------------------------------5-----------------------7-----10--
G|-------------------------------------2-----2-----2-----2-------4-----4-----4-----4-----6-----9------
D|----------------------------------------------------------------------------------------------------
A|----------------------------------------------------------------------------------------------------
E|----------------------------------------------------------------------------------------------------
http://www.guitartabcreator.com
Guitar Tab Creator is intended to store guitar tab created through the tool. It currently does not support in-line text editing. Any text you place in here will be lost. If you need to comment on your tab, please use the "Tab Notes" section located below.