CREATURES (Relative to 3rd Fret Capo)

(/) Slide Up  (\) Slide Down  (h) Hammer On  (p) Pull Off  (b) Bend (r) Release (v) Vibrato

E|--7--8--7--------7--8--7-----10--7--7--8--7------------------------
B|--8--8-----8-----8--8-----8--8---8--8--8-----8---------------------
G|--7--7--------7--7--7--------7------7--7--------7------------------
D|---------------------------------------------------7h9--7--7h9--5--
A|-------------------------------------------------------------------
E|-------------------------------------------------------------------



E|-----------------------------------------------------------------------
B|-----------------------------------------------------------------------
G|-----------------------------------------------------------------------
D|--------------5--7--9--10--12--9------------------5--7--9--10--14--12--
A|--------5--7--------------------------------5--7-----------------------
E|--5--7--------------------------------5--7-----------------------------



E|--2--3--2-----------------------------2--3--2--------------
B|--3--3--3--3--------------------------3--3--3--------------
G|--2-----------2--------0-----------0--2--------2--------0--
D|--------------------2-----------0--------------------2--2--
A|-----------------3-----------2--------------------3-----2--
E|--------------------------3-----------------------------0--



E|--2--3--2--------------------------2--3--2-----
B|--3--3--3--------------------------3--3--3-----
G|--2--------2--------0-----------0--2-----2--0--
D|-----------------2-----------0--------------2--
A|--------------3-----------2-----------------3--
E|-----------------------3-----------------------



E|-----------------------------------------------------------------------------------------------------
B|-------------8-----8--10--8---------------8----------------------------------------------------------
G|----------7-----7----------------------7-----7/9--7--9--7--------------------------------------------
D|-------5----------------------------5----------------------9--5----7--5--7--9--7--10--10--10--12--9--
A|--5/7--------------------------5/7-------------------------------------------------------------------
E|-----------------------------------------------------------------------------------------------------



E|-----------1-----
B|--1--1--1--2-----
G|--0--2--0--1--0--
D|--2--2--2-----2--
A|--3--0--3-----2--
E|--------------0--



E|-----7-----5-----5--3----------------------------------------------------------
B|--8-----8-----8--------5--3--5--3--0---------------3---------------------------
G|--------------------------------------2b3--0--2/4-----4\2r0---------0h2b3b2r0--
D|---------------------------------------------------------------0h2-------------
A|-------------------------------------------------------------------------------
E|-------------------------------------------------------------------------------



E|--------------------------------16----------------
B|-------------------------15b16------16b15---------
G|----------12--14b15--12--------------------15b14--
D|--12--14------------------------------------------
A|--------------------------------------------------
E|--------------------------------------------------



E|---------16---------16---------16--
B|--15b16------15b16------15b16------
G|-----------------------------------
D|-----------------------------------
A|-----------------------------------
E|-----------------------------------
http://www.guitartabcreator.com
Guitar Tab Creator is intended to store guitar tab created through the tool. It currently does not support in-line text editing. Any text you place in here will be lost. If you need to comment on your tab, please use the "Tab Notes" section located below.