The Luckiest - Ben Folds

(/) Slide Up  (\) Slide Down  (h) Hammer On  (p) Pull Off  (b) Bend (r) Release (v) Vibrato

E|-------2--------|---------------|-------2--------|-----0--------|-
B|-----3----3-----|-----3--0------|-----3----3-----|--------2-----|-
G|---2--------2---|---------------|---2--------2---|-----------2--|-
D|-0------------0-|---0-----------|-0------------2-|---2----------|-
A|----------------|---------------|----------------|-0------------|-
E|----------------|-3-------------|----------------|--------------|-



E|-------7------7-|-5---------5-----|---------------|-2-
B|-----7------7---|-------------5---|-------0---3-0-|---
G|---7------7-----|-----6-2-6-----2-|-0---------0---|-2-
D|----------------|-4---------------|-----0---0---0-|---
A|----------------|---0-------------|---2-----------|---
E|-7--------------|---------------2-|-3-------------|---
http://www.guitartabcreator.com
Guitar Tab Creator is intended to store guitar tab created through the tool. It currently does not support in-line text editing. Any text you place in here will be lost. If you need to comment on your tab, please use the "Tab Notes" section located below.