Dead Man

(/) Slide Up  (\) Slide Down  (h) Hammer On  (p) Pull Off  (b) Bend (r) Release (v) Vibrato
E|--------------------------------
B|--------------------------------
G|--------------------------------
D|--------5--3--------------------
A|-----1--------5--4--3-----------
E|--3--------------------6--3--1--



E|---------------------------------------------------------
B|---------------------------------------------------------
G|---------------------------------------------------------
D|--------9--7------------------------7--5-----------------
A|-----5--------9--8--7------------3--------7--6--5--------
E|--7--------------------10--7--5--------------------8--5--



E|--------------------------------
B|--------------------------------
G|--------------------------------
D|--------5--3--------------------
A|-----1--------5--4--3-----------
E|--3--------------------6--3--1--



E|--------------------------------------
B|--------------------------------------
G|-----------------5--------------------
D|--5--5--5--5-----5-----8--8--8--8--8--
A|--5--5--5--5-----3-----8--8--8--8--8--
E|--3--3--3--3--0-----0--6--6--6--6--6--



E|--------------------------------------------
B|--------------------------------------------
G|--------------------------------------------
D|--------------------------------------------
A|--------------------------3--3--3-----------
E|--3--3--3--3--3--3--3--3-----------6--6--6--



E|--------------------------------
B|--------------------------------
G|--------------------------------
D|--------5--3--------------------
A|-----1--------5--4--3-----------
E|--3--------------------6--3--1--



E|---------------------------------------------------------
B|---------------------------------------------------------
G|---------------------------------------------------------
D|--------9--7------------------------7--5-----------------
A|-----5--------9--8--7------------3--------7--6--5--------
E|--7--------------------10--7--5--------------------8--5--



E|--------------------------------
B|--------------------------------
G|--------------------------------
D|--------5--3--------------------
A|-----1--------5--4--3-----------
E|--3--------------------6--3--1--



E|---------------------------------
B|---------------------------------
G|---------------------------------
D|--5--5--5--8--5--5--5--5--10--8--
A|--5--5--5--8--5--5--5--5--10--8--
E|--3--3--3--6--3--3--3--3--8---6--



E|-------------------------------------------
B|-------------------------------------------
G|-------------------------------------------
D|--5--5--5--8--5--10--10--10--10--10-----8--
A|--5--5--5--8--5--10--10--10--10--10-----8--
E|--3--3--3--6--3--8---8---8---8---8------6--
http://www.guitartabcreator.com
Guitar Tab Creator is intended to store guitar tab created through the tool. It currently does not support in-line text editing. Any text you place in here will be lost. If you need to comment on your tab, please use the "Tab Notes" section located below.