Santana Solo

(/) Slide Up  (\) Slide Down  (h) Hammer On  (p) Pull Off  (b) Bend (r) Release (v) Vibrato
E|-----------------------------------------6b7-----
B|-----------6p3--6-------6-----------6p3-------8--
G|--------3----------5/7-----------3---------------
D|--5--5---------------------5--5------------------
A|-------------------------------------------------
E|-------------------------------------------------



E|---------------------------------------------------------------------
B|--11--11--8--11--11--8--11b12--8------8--11--11--8--11--8---------8--
G|----------------------------------10-----------------------10b11-----
D|---------------------------------------------------------------------
A|---------------------------------------------------------------------
E|---------------------------------------------------------------------



E|-----------------------------------------------------------------
B|--11--11--8--11--8--11b12--8------8--11--11--8--11--8---------8--
G|------------------------------10-----------------------10b11-----
D|-----------------------------------------------------------------
A|-----------------------------------------------------------------
E|-----------------------------------------------------------------
http://www.guitartabcreator.com
Guitar Tab Creator is intended to store guitar tab created through the tool. It currently does not support in-line text editing. Any text you place in here will be lost. If you need to comment on your tab, please use the "Tab Notes" section located below.