Dueling Guitars

(/) Slide Up  (\) Slide Down  (h) Hammer On  (p) Pull Off  (b) Bend (r) Release (v) Vibrato
E|--5--12--9--15--------------------10-----------10-----------------------------10--
B|--x--x---x--x---------------8h10---------8h10---------------------------8h10------
G|--0--0---0--0------------7------------7------------------------------7------------
D|--x--x---x--x-----2/4------------------------------5p4--2p0--2/4--0---------------
A|--x--x---x--x---------------------------------------------------------------------
E|--x--x---x--x---------------------------------------------------------------------



E|-----------10-----------------3--
B|-----8h10---------------------3--
G|--7---------------------------0--
D|---------------5p4--2p0-------0--
A|-------------------------1/2--5--
E|------------------------------5--



E|--3--5--5--3--5----3--5--5--3--5------------------------------------x----3--
B|--3--3--3--3--3----3--3--3--3--3------------------------------------x----3--
G|--2--2--2--2--2----2--2--2--2--2------------------------------------2----0--
D|--0--0--0--0--0----0--0--0--0--0--------------7-----7-----7---------2----0--
A|--x--x--x--x--x----x--x--x--x--x----4/5--5/7-----5-----4-----2/4\2--0----5--
E|--x--x--x--x--x----x--x--x--x--x------------------------------------x----5--



E|------------------------------------------------------x-------------
B|--------------------3---------------------------------3-------------
G|-----------------------2------------------------------2--2----------
D|--2/4--4\2--2h4-----------4--2p0----2/4--4\2--2h4-----4-----4--2p0--
A|------------------------------------------------------0-------------
E|-----------------0---------------------------------0--0-------------



E|--------------------x-----------------------------x---x--x--x--x--x--x--x--x--x--
B|--------------------3-----------------------------10--x--8--x--7--x--5--x--3--3--
G|--------------------2--2--------------------------9---x--7--x--6--x--4--x--2--2--
D|--2/4--4\2--2h4-----4-----4--2p0--0--0--0h2p0---------------------------------0--
A|--------------------0---------------------------------------------------------0--
E|-----------------0--0--------------------------0------------------------------x--



E|-----x--x--x--x--x--x--x--x--x--x-----
B|-----x--x--x--x--x--x--x--x--x--x-----
G|-----x--x--x--x--x--x--x--x--x--x-----
D|-----7--x--5--x--4--x--2--x--0--0-----
A|-----7--x--5--x--4--x--2--x--0--0-----
E|--0--7--x--5--x--4--x--2--x--0--0-----
http://www.guitartabcreator.com
Guitar Tab Creator is intended to store guitar tab created through the tool. It currently does not support in-line text editing. Any text you place in here will be lost. If you need to comment on your tab, please use the "Tab Notes" section located below.