Always The Understudy New Release 2013

(/) Slide Up  (\) Slide Down  (h) Hammer On  (p) Pull Off  (b) Bend (r) Release (v) Vibrato

E|--0--0--0--0--0--0--0--0--0--0--0--0--0--0--0--0--3b--1b
B|--0--0--0--0--0--0--0--0--0-----0--0-----0--0--0--------
G|--0--0--0--0--0--0--0--0--0-----0--0-----0--0--0--------
D|--------------------------------------------------------
A|--------------------------------------------------------
E|--------------------------------------------------------



E|--8--4--0--0--0--1--0--8--4--0h4h7---------------------
B|--8--4-----------------8--4---------0h5h8---------6p5--
G|--8--4-----------------8--4----------------4h5p4-------
D|-------------------------------------------------------
A|-------------------------------------------------------
E|-------------------------------------------------------



E|--0--0--0--0--0--0-----
B|--0--0--0--0--0--0-----
G|--0--0--0--0--0--0-----
D|-----------------------
A|-----------------------
E|-----------------------



E|--8--4--0--0--0--1--0--4--0--8--4--0h4h7---------------------
B|--8--4-----------------------8--4---------0h5h8---------6p5--
G|--8--4-----------------------8--4----------------4h5p4-------
D|-------------------------------------------------------------
A|-------------------------------------------------------------
E|-------------------------------------------------------------
http://www.guitartabcreator.com
Guitar Tab Creator is intended to store guitar tab created through the tool. It currently does not support in-line text editing. Any text you place in here will be lost. If you need to comment on your tab, please use the "Tab Notes" section located below.