Ice

(/) Slide Up  (\) Slide Down  (h) Hammer On  (p) Pull Off  (b) Bend (r) Release (v) Vibrato
E|-----------3---------------3---------------5-----------------10--------
B|---------------5---------------5---------------6------------------12---
G|-------5---------------5---------------7----------------12-------------
D|-----------------------------------------------------------------------
A|---3---------------3---------------5---------------10------------------
E|-----------------------------------------------------------------------



E|-----------5---------------5-------------------------------------10--------
B|---------------6---------------6-------------12--------13------------------
G|-------7---------------7----------------12--------12--------12--------12---
D|---------------------------------------------------------------------------
A|---5---------------5---------------10--------------------------------------
E|---------------------------------------------------------------------------
http://www.guitartabcreator.com
Guitar Tab Creator is intended to store guitar tab created through the tool. It currently does not support in-line text editing. Any text you place in here will be lost. If you need to comment on your tab, please use the "Tab Notes" section located below.