Tristam and Braken - Flight(tabs gmartar)

(/) Slide Up  (\) Slide Down  (h) Hammer On  (p) Pull Off  (b) Bend (r) Release (v) Vibrato


E|----------------------------------------------------------------------------------------------------
B|----------------------------------------------------------------------3h2h3h2-----------------------
G|-----6--4/6/4--2-----------2--2/4/2----------------6--4/6/4--2-----------------4/6/4--2--4/6--4--2--
D|--4---------------4--2--4------------4--2h4--2--4---------------4--4--------------------------------
A|----------------------------------------------------------------------------------------------------
E|----------------------------------------------------------------------------------------------------



E|---------------------------------------------------------------------------------------------------
B|---------------------------------------------------------------------------3/2/3/2-----------------
G|----------6--4/6/4--2-----------2--2/4/2----------------6--4/6/4--2-----------------4/6/4--2--4/6--
D|--4h2--4---------------4--2--4------------4--2h4--2--4---------------4--4--------------------------
A|---------------------------------------------------------------------------------------------------
E|---------------------------------------------------------------------------------------------------



E|-------------
B|-------------
G|--4--2-------
D|--------4h2--
A|-------------
E|-------------



E|--------2--2--2--2--------2--2--2--2--------2--2--2--2--
B|--------2--2--2--2--------2--2--2--2--------2--2--2--2--
G|-----------------2--------------------------------------
D|--2--4--------------2--4--------------2--4--------------
A|--2--4--------------2--4--------------2--4--------------
E|--0--2-----------0--0--2--------------0--2--------------



E|--------------------2--
B|------------3h2--5-----
G|--6h4/2--4-------------
D|-----------------------
A|-----------------------
E|-----------------------



E|--------2--2--2--2--------2--2--2--2--------2--2--2--2--
B|--------2--2--2--2--------2--2--2--2--------2--2--2--2--
G|--------------------------------------------------------
D|--2--4--------------2--4--------------2--4--------------
A|--2--4--------------2--4--------------2--4--------------
E|--0--2--------------0--2--------------0--2--------------



E|---------------------
B|---------------------
G|--6h4/2--4b5b4h2-----
D|------------------4--
A|---------------------
E|---------------------



E|--------------------------------------------------------------------------------------------
B|------14--14h12h10-------------10--10h9------------------14--14h12h10-------------10--10h9--
G|--11----------------11--9--11------------11--9h11h9--11----------------11--9--11------------
D|--------------------------------------------------------------------------------------------
A|--------------------------------------------------------------------------------------------
E|--------------------------------------------------------------------------------------------



E|--------------
B|--------------
G|--11--9h11h9--
D|--------------
A|--------------
E|--------------



E|----------12h10--12h10--12/14/12/10-------------------
B|-------------------------------------12/14h12/10------
G|--11--11------------------------------------------11--
D|------------------------------------------------------
A|------------------------------------------------------
E|------------------------------------------------------



E|--------------------------------------------------------
B|--14--12--10--10--12--14--12h14h12--10h12h10--9h10h9/7--
G|--------------------------------------------------------
D|--------------------------------------------------------
A|--------------------------------------------------------
E|--------------------------------------------------------
http://www.guitartabcreator.com
Guitar Tab Creator is intended to store guitar tab created through the tool. It currently does not support in-line text editing. Any text you place in here will be lost. If you need to comment on your tab, please use the "Tab Notes" section located below.