Pitbull - Timber ft. Kesha (guitar tabs by Gmartar)

(/) Slide Up  (\) Slide Down  (h) Hammer On  (p) Pull Off  (b) Bend (r) Release (v) Vibrato


E|-------------
B|-------------
G|-----4--4--4/
D|--4----------
A|-------------
E|-------------



E|-------------------
B|--4----------4--7--
G|-----6h4-----------
D|----------6--------
A|-------------------
E|-------------------



E|--------------------------
B|-------4------------------
G|--11v-----6h4-----4/6--4--
D|---------------6----------
A|--------------------------
E|--------------------------



E|-----------------------------------------------------------------------------------
B|-----------------------------------------------------------------------------------
G|-----------------------------------------------------------------------------------
D|--6--6--x--6--6--6--x--9--9--x--9--9--9--x--4--4--x--4--4--4--x--2--2--x--2--2--2--
A|--6--6--x--6--6--6--x--9--9--x--9--9--9--x--4--4--x--4--4--4--x--2--2--x--2--2--2--
E|--4--4--x--4--4--4--x--7--7--x--7--7--7--x--2--2--x--2--2--2--x--0--0--x--0--0--0--



E|------------------------------------------------------------------------------------------------
B|--------------------------------------------------------------------------12--12--12h11--11-----
G|--13b15--13--11--13--11------------11--13b15b13b15b13h11----------------------------------------
D|-------------------------13h11h13-------------------------13--11--13--11------------------------
A|------------------------------------------------------------------------------------------------
E|------------------------------------------------------------------------------------------------



E|--
B|--
G|--
D|--
A|--
E|--
http://www.guitartabcreator.com
Guitar Tab Creator is intended to store guitar tab created through the tool. It currently does not support in-line text editing. Any text you place in here will be lost. If you need to comment on your tab, please use the "Tab Notes" section located below.