go away

(/) Slide Up  (\) Slide Down  (h) Hammer On  (p) Pull Off  (b) Bend (r) Release (v) Vibrato


E|-----------------------------------------------------------------------------------------------------------|
B|-----------------------------------------------------------------------------------------------------------
G|---------------------------------------------------p-h-----------------------------------------------------
D|---------------5-------------------------5-----7p5-7p5-------------5-----------------------7------7--8p78p7
A|-----7---5h7------7---5h7-7----7---5h7------7-------------7--5h7------7--5h7-7----7--5h7---7--7------------
E|--0-0--0-----0---0--0-------0-0--0-----0---0-0---------0-0--0----0---0--0------0-0-0-----0-7-7--7---7------
. . . . . . . . . . . . . . . . . . . . . . . . .
E|--9p7\5h7p5\3h5p3\2h3



E|-------------------------------------------|--------------------------------------------|----------------|
B|----------------x4-------------------------|------------------x4------------------------|----------------|
G|-------------------------------------------|--------------------------------------------|----------------|
D|-------------------------------------------|--------------------------------------------|----------------|
A|------1-----1-----1-----1----3----2-----1h2|-----3-----3-----3-----3-----6-----5-----3h5|--3h5p3\1p0-----|
E|--0-0-1-0-0-1-0-0-1-0-0-1-0-0-0-0---0-0----|-3-3-3-3-3-3-3-3-3-3-3-3-3-3---3-3---3-3----|----------------|
. . . . . . . . . . . . . . . . . . . . . . . . . . . .


E|--
B|--
G|--
D|--
A|--
E|--



E|--
B|--
G|--
D|--
A|--
E|--



E|--
B|--
G|--
D|--
A|--
E|--



E|--
B|--
G|--
D|--
A|--
E|--



E|--
B|--
G|--
D|--
A|--
E|--



E|--
B|--
G|--
D|--
A|--
E|--



E|--
B|--
G|--
D|--
A|--
E|--



E|--
B|--
G|--
D|--
A|--
E|--



E|--
B|--
G|--
D|--
A|--
E|--



E|--
B|--
G|--
D|--
A|--
E|--



E|--
B|--
G|--
D|--
A|--
E|--



E|--
B|--
G|--
D|--
A|--
E|--



E|--
B|--
G|--
D|--
A|--
E|--



E|--
B|--
G|--
D|--
A|--
E|--



E|--
B|--
G|--
D|--
A|--
E|--



E|--
B|--
G|--
D|--
A|--
E|--



E|--
B|--
G|--
D|--
A|--
E|--



E|--
B|--
G|--
D|--
A|--
E|--



E|--
B|--
G|--
D|--
A|--
E|--



E|--
B|--
G|--
D|--
A|--
E|--



E|--
B|--
G|--
D|--
A|--
E|--



E|--
B|--
G|--
D|--
A|--
E|--



E|--
B|--
G|--
D|--
A|--
E|--



E|--
B|--
G|--
D|--
A|--
E|--



E|--
B|--
G|--
D|--
A|--
E|--



E|--
B|--
G|--
D|--
A|--
E|--



E|--
B|--
G|--
D|--
A|--
E|--



E|--
B|--
G|--
D|--
A|--
E|--



E|--
B|--
G|--
D|--
A|--
E|--



E|--
B|--
G|--
D|--
A|--
E|--



E|--
B|--
G|--
D|--
A|--
E|--



E|--
B|--
G|--
D|--
A|--
E|--



E|--
B|--
G|--
D|--
A|--
E|--



E|--
B|--
G|--
D|--
A|--
E|--
http://www.guitartabcreator.com
Guitar Tab Creator is intended to store guitar tab created through the tool. It currently does not support in-line text editing. Any text you place in here will be lost. If you need to comment on your tab, please use the "Tab Notes" section located below.