the end

(/) Slide Up  (\) Slide Down  (h) Hammer On  (p) Pull Off  (b) Bend (r) Release (v) Vibrato


E|------------------------------------|-------------------------------------------------------------
B|---------------x4-------------------|-------------------------------------------------------------
G|------------------------------------|-------------------------------------------------------------
D|-------12---11-------12---11------12|--(4th time x out last 12)-12\/------------------------------
A|--11-11--11----11-11---11----11-11--|---------------------------12\/------------------------------
E|------------------------------------|---------------------------12\/------------------------------



E|----------------------------------------------
B|---------------------------------------------
G|---------------------------------------------
D|---------------------12----------------------
A|--------13--14--13-------13------------------
E|--12-12---12--12--12---12--12--15p14p12--14h15



E|--
B|--
G|--
D|--
A|--
E|--



E|--
B|--
G|--
D|--
A|--
E|--



E|--
B|--
G|--
D|--
A|--
E|--



E|--
B|--
G|--
D|--
A|--
E|--



E|--
B|--
G|--
D|--
A|--
E|--



E|--
B|--
G|--
D|--
A|--
E|--



E|--
B|--
G|--
D|--
A|--
E|--



E|--
B|--
G|--
D|--
A|--
E|--



E|--
B|--
G|--
D|--
A|--
E|--



E|--
B|--
G|--
D|--
A|--
E|--



E|--
B|--
G|--
D|--
A|--
E|--



E|--
B|--
G|--
D|--
A|--
E|--



E|--
B|--
G|--
D|--
A|--
E|--
http://www.guitartabcreator.com
Guitar Tab Creator is intended to store guitar tab created through the tool. It currently does not support in-line text editing. Any text you place in here will be lost. If you need to comment on your tab, please use the "Tab Notes" section located below.