Solid State Survivor - guitar

(/) Slide Up  (\) Slide Down  (h) Hammer On  (p) Pull Off  (b) Bend (r) Release (v) Vibrato


E|--------|--------
B|--------|--------
G|--------|--------
D|--5--3--|--6--4--
A|--5--3--|--6--4--
E|--3--1--|--4--2--



E|---------------------------------|-----------
B|--7---------------------------7--|-----------
G|--7------------3--------3--5--7--|--------3--
D|--7------7--5--3--------3--5--7--|--7--2--3--
A|--5------7--5--1--------1--3--5--|--7--2--1--
E|---------5--3--------------------|--5--0-----



E|------------------------
B|--3--2------------------
G|--4--2--4---------3--5--
D|--4--4--5--2------3--5--
A|--2--4--5--2------1--3--
E|-----2--3--0------------



E|--
B|--
G|--
D|--
A|--
E|--
http://www.guitartabcreator.com
Guitar Tab Creator is intended to store guitar tab created through the tool. It currently does not support in-line text editing. Any text you place in here will be lost. If you need to comment on your tab, please use the "Tab Notes" section located below.