Solid State Survivor - Bass

(/) Slide Up  (\) Slide Down  (h) Hammer On  (p) Pull Off  (b) Bend (r) Release (v) Vibrato
E|--------------------------------------------------
B|--------------------------------------------------
G|--------------2--2--------------------2--2--------
D|--------3-----------3--2--------3-----------3--2--
A|--5--5-----5--------------5--5-----5--------------
E|--------------------------------------------------



E|--------------------------------------------------
B|--------------------------------------------------
G|--------------3--3--------------------3--3--------
D|--------4-----------4--3--------4-----------4--3--
A|--6--6-----6--------------6--6-----6--------------
E|--------------------------------------------------



E|---------------------------------------|-------------------
B|---------------------------------------|-------------------
G|---------------------------------------|-------------------
D|---------------------------------------|-------------------
A|--5--------------------1------1--3--5--|---------7------1--
E|-----------5------3--------------------|--5----------------



E|--------------------------------------------------------------------------------------
B|--------------------------------------------------------------------------------------
G|--------------------------------------------------------------------------------------
D|--------------------------------------------2--3--4--4--2--2--7--7--6--5--4--4--7--4--
A|--2--2--------5--5--4--4--2--2--4--4--5--5--------------------------------------------
E|--------5--4--------------------------------------------------------------------------



E|----------|--
B|----------|--
G|----------|--
D|--4--2h4--|--
A|----------|--
E|----------|--



E|---------------------------------------------------------------------------------------
B|---------------------------------------------------------------------------------------
G|---------------------------------------------------------------------------------------
D|--------4h5--------4h5--------4h5-----5-----4---------------------------8-----8--------
A|-----------------------------------------------------5h7--------5h7--------------------
E|--3--3-------3--3-------3--3-------3-----2-----0--0-------0--0-------6-----6-----6--8--
http://www.guitartabcreator.com
Guitar Tab Creator is intended to store guitar tab created through the tool. It currently does not support in-line text editing. Any text you place in here will be lost. If you need to comment on your tab, please use the "Tab Notes" section located below.