Jacques Costeau

(/) Slide Up  (\) Slide Down  (h) Hammer On  (p) Pull Off  (b) Bend (r) Release (v) Vibrato
E|-----1--4--3--|---------------------|--
B|--5--1--4--3--|------5--10--13--12--|--
G|--5--2--5--4--|------5--10--13--12--|--
D|--5--3--6--5--|------5--10--13--12--|--
A|--3--3--6--5--|------3--8---11--10--|--
E|-----1--4--3--|---------------------|--



E|--0--1--4--3--------------|--0--
B|--0--1--4--3--------------|--1--
G|--5--2--5--4--------------|--0--
D|--5--3--6--5--------------|--2--
A|--3--3--6--5--------------|--3--
E|-----1--4--3--------------|-----



E|----------------
B|--3--8--11--10--
G|--3--8--11--10--
D|--3--8--11--10--
A|--1--6--9---8---
E|----------------



E|--0--|--3--
B|--1--|--3--
G|--0--|--3--
D|--2--|--3--
A|--3--|--1--
E|-----|-----
http://www.guitartabcreator.com
Guitar Tab Creator is intended to store guitar tab created through the tool. It currently does not support in-line text editing. Any text you place in here will be lost. If you need to comment on your tab, please use the "Tab Notes" section located below.