The Damned - Plan 9 Channel 7 Guitar

(/) Slide Up  (\) Slide Down  (h) Hammer On  (p) Pull Off  (b) Bend (r) Release (v) Vibrato
E|--------------------------------------------------
B|-----------0--0-------0-------------0--0-------0--
G|--------0--3--3--3b4-------------0--3--3--3b4-----
D|--------2--2--2------------------2--2--2----------
A|--------2--2--2------------------3--3--3----------
E|--12\0--0--0--0-----------------------------------



E|-----------------------------
B|-----------------------------
G|-----------------------------
D|--3--3--3--3--3--3--3--3-----
A|--3--3--3--3--3--3--3--3-----
E|--1--1--1--1--1--1--1--0-----



E|---------------------------
B|---------------------------
G|--2--2---------------------
D|--2--2---------------------
A|--0--0--0--0--2v--0--2--3--
E|---------------------------



E|--------------------------
B|--------------------------
G|--------------------------
D|--3--3--3--3--3--3--3--3--
A|--3--3--3--3--3--3--3--3--
E|--1--1--1--1--1--1--1--0--



E|---------------------------------------------------
B|---------------------------------------------------
G|--2--2---------------------------------------------
D|--2--2---------------------2--3--5--------2--3--5--
A|--0--0--0--0--2v--0--2--3--2--3--5--------2--3--5--
E|---------------------------0--1--3--------0--1--3--



E|--------------
B|--------------
G|--4--------7--
D|--4--------7--
A|--2--------5--
E|--------------



E|-----------------------------|--------------------
B|--------5--------------------|--------5--0--2-----
G|--4--2--5--------------------|--4--2--5--0--2--4--
D|--5--3--5--------------------|--5--3--5--2--2--5--
A|--5--3--3--------------------|--5--3--3--2--0--5--
E|--3--1-----------------------|--3--1-----0-----3--



E|----------------------|--0--
B|-----5----------------|--0--
G|--0--5----------------|--0--
D|--2--5----------------|--2--
A|--2--3----------------|--2--
E|--0-------------------|--0--
http://www.guitartabcreator.com
Guitar Tab Creator is intended to store guitar tab created through the tool. It currently does not support in-line text editing. Any text you place in here will be lost. If you need to comment on your tab, please use the "Tab Notes" section located below.