The Damned Plan 9 Channel 7 bass

(/) Slide Up  (\) Slide Down  (h) Hammer On  (p) Pull Off  (b) Bend (r) Release (v) Vibrato

E|---------------------------------------------------------
B|---------------------------------------------------------
G|---------------------------------------------------------
D|---------------------------------------------------------
A|------------------------0--3--3--3--3--2--0--------------
E|--0--0--0------0--2--3-----------------------3--2--0-----



E|--------------------------------------------------
B|--------------------------------------------------
G|--------------------------------------------------
D|--------------------------------------------------
A|--------------------------------------------------
E|--1--1--1--1--1--1--1--0--1--1--1--1--1--1--1--0--



E|--------------------------
B|--------------------------
G|--------------------------
D|--------------------------
A|--0--0--0--0--2--0--2--3--
E|--------------------------



E|--------------------------------------------------
B|--------------------------------------------------
G|--------------------------------------------------
D|--------------------------------------------------
A|--------------------------------------------------
E|--1--1--1--1--1--1--1--0--1--1--1--1--1--1--1--0--



E|--------------------------------------------------------------------------------------------
B|--------------------------------------------------------------------------------------------
G|--------------------------------------------------------------------------------------------
D|--------------------------------------------------------------------------------------------
A|--0--0--0--0--2--0--2--3--------------------------------5--7--------------------------------
E|--------------------------0--0--0--1--3--3--5--5--7--7--------0--0--1--3--3--3--3--2--2-----



E|--------------------------------------------------------------------------------------------
B|--------------------------------------------------------------------------------------------
G|--------------------------------------------------------------------------------------------
D|--------------------------------------------------------------------------------------------
A|--0--0--0--0--2--0--2--3--------------------------------5--7--------------------------5--3--
E|--------------------------0--0--0--1--3--3--5--5--7--7--------0--0--1--3--3--3--3--3--------



E|------------------------------------------------------------------------
B|------------------------------------------------------------------------
G|------------------------------------------------------------------------
D|------------------------------------------------------------------------
A|--2--2--2-----2--4--5--4--2---------5--5--5--0--5--5--3--3--2--2--0--0--
E|-----------2-----------------2------------------------------------------



E|-----------------
B|-----------------
G|-----------------
D|-----------------
A|--------------3--
E|--3--3--1--1-----



E|-----------------------------------------------------------------------------------
B|-----------------------------------------------------------------------------------
G|-----------------------------------------------------------------------------------
D|-----------------------------------------------------------3--2--0-----------------
A|--------------3--3--------0--0--------2--2--3--3--4--4--5-----------3--2--0--------
E|--3--3--1--1--------0--0--------3--3-----------------------------------------3--0--



E|-----------------------------------
B|-----------------------------------
G|-----------------------------------
D|-----------------------------------
A|--7--7--7--7--7--7--3--3--3--3--3--
E|-----------------------------------



E|-----------------------------------------------------
B|-----------------------------------------------------
G|-----------------------------------------------------
D|-----------------------------5--4--------------------
A|--7-----------5-----5--6--7--------7--6--5--4--5-----
E|-----5--6--7-----7-----------------------------------



E|--------------------------------------------------
B|--------------------------------------------------
G|--------------------------------------------------
D|-----------------------------2--0-----------------
A|--3--------------0--2--0--3--------3--2--0--------
E|-----0--1--2--3-----------------------------3--2--



E|-----------------------------|--------------------
B|-----------------------------|--------------------
G|-----------------------------|--------------------
D|-----------------------------|--------------------
A|--3--------------0--2--0--3--|--------5-----------
E|-----0--1--2--3--------------|--0--3-----3--5--0--
http://www.guitartabcreator.com
Guitar Tab Creator is intended to store guitar tab created through the tool. It currently does not support in-line text editing. Any text you place in here will be lost. If you need to comment on your tab, please use the "Tab Notes" section located below.