lost to you bass tab

(/) Slide Up  (\) Slide Down  (h) Hammer On  (p) Pull Off  (b) Bend (r) Release (v) Vibrato
verse/chorus
E|--------------------------------------------------------
B|--------------------------------------------------------
G|--------------------------------------------------------
D|--------------------------------------------------------
A|--------------------------------------3--3--3--5--5-----
E|--5--5--5--5--3--3--3--3--5--5--5--5--------------------


your solo ;)
E|--------------------------------------------------------------|--
B|--------------------------------------------------------------|--
G|--------------------------------------------------------------|--
D|--------------------------------------------------------------|--
A|-----------------3--3--3--5--5--------------------------------|--
E|--5--5--3--4--5-----------------5--5--5--3--2--0--0--0--2--2--|--
http://www.guitartabcreator.com
Guitar Tab Creator is intended to store guitar tab created through the tool. It currently does not support in-line text editing. Any text you place in here will be lost. If you need to comment on your tab, please use the "Tab Notes" section located below.