all i want bass tab

(/) Slide Up  (\) Slide Down  (h) Hammer On  (p) Pull Off  (b) Bend (r) Release (v) Vibrato

verse
E|-----------------------------|-----------------------|--
B|-----------------------------|-----------------------|--
G|-----------------------------|-----------------------|--
D|-----------4--4--4--5--------|-----------4--4--------|--
A|--5--5--7--------------5--5--|--5--5--7--------5--5--|--
E|-----------------------------|-----------------------|--


chorus
E|--------------------------|-----------------------|--
B|--------------------------|-----------------------|--
G|--------------------------|-----------------------|--
D|--------------------------|-------------------12--|--
A|--7--7--9--10--10--10--7--|--7--7--9--10--10------|--
E|--------------------------|-----------------------|--


solo
E|--------------|-----------|--
B|--------------|-----------|--
G|--------------|-----------|--
D|--------------|-----------|--
A|--5-----5-----|--------5--|--
E|-----3-----3--|--0--3-----|--
http://www.guitartabcreator.com
Guitar Tab Creator is intended to store guitar tab created through the tool. It currently does not support in-line text editing. Any text you place in here will be lost. If you need to comment on your tab, please use the "Tab Notes" section located below.