Sh

(/) Slide Up  (\) Slide Down  (h) Hammer On  (p) Pull Off  (b) Bend (r) Release (v) Vibrato
t: SS SS SS SS SS SS SS SS SS S S S S SS SS SS SS SS SS SS SS SS S S S S
E|--------------------------------------------------------------------------------------------------
B|--------------------------------------------------------------------------------------------------
G|--------------------------------------------------------------------------------------------------
D|----------12--10------------------11-----------5----------12--10----------11-------------5--------
A|------11----------11----------11------------3---------11----------11----------11------------3-----
E|--10------------------12--11----------0--3--------10------------------12----------11--3--------3--



E|-------------------------------------------------------------------------------------------------
B|-------------------------------------------------------------------------------------------------
G|-------------------------------------------------------------------------------------------------
D|----------12--10------------------11-----------5----------12--10----------11------------5--------
A|------11----------11----------11------------3---------11----------11------11---------------3-----
E|--10------------------12--11----------0--3--------10------------------12--11------0--3--------3--



E|----------------------------------------------------------------------------------------------------
B|----------------------------------------------------------------------------------------------------
G|----------------------------------------------------------------------------------------------------
D|--2----2p0h2p0----2----2--------5----------------2----2p0h2p0--2----2----------5--------------------
A|------------------2----2-----4--------7-----6------------------2----2-------4--------7--------------
E|--3----3----------2----2--3--------6-----5-------3----3--------2----2p0--3--------6-----5--0--------



E|----------------------------------------------------------------------------------------------
B|----------------------------------------------------------------------------------------------
G|----------------------------------------------------------------------------------------------
D|--2----2p0h2p0--2----2--------5----------------2--2p0h2p0--2--2--2--------5-------------------
A|----------------2----2-----4--------7-----6----------------2--2--2-----4--------7-------------
E|--3----3--------2----2--3--------6-----5-------3--3--------2--2--2--3--------6-----5----0-----



E|--------------------------------------------------------------------------------------------------
B|--------------------------------------------------------------------------------------------------
G|--------------------------------------------------------------------------------------------------
D|-----------------------------------------1--1--1-----1--0--------------------------------1--1--1--
A|--9---------12-------0--------3-----6\0--1--1--1--0--1--0--0----0-----0--0--0----------5\1--1--1--
E|-----10--9--------0--8------0h3--3-------1--1--1--0--1--0--4----5----/8--8--8--0h3--3----1--1--1--



E|-------------------------------------------------------------------------------------------------
B|-------------------------------------------------------------------------------------------------
G|-------------------------------------------------------------------------------------------------
D|--0--1--0-------------------------------------1--1--1--0--1--0-----------------------------------
A|--0--1--0--9----------------0--0--0---------3\1--1--1--0--1--0-----------------------------------
E|--0--1--0-----10--9--5b7b5--8--8--8--0h3------1--1--1--0--1--0--------12--12/14b15b14--12--0-----



E|---------------------------------------------------------------------------------------------
B|---------------------------------------------------------------------------------------------
G|---------------------------------------------------------------------------------------------
D|-------------------------------------11----------5-------------------------------------------
A|--5----5-----------------------------11-------------3----------------------------------------
E|--2----3----12--12/14--14b15b14--12--11----0--3--------3----12--12/14--14b15b14--12----0-----



E|---------------------------------------------------------------------
B|---------------------------------------------------------------------
G|---------------------------------------------------------------------
D|--3--3--3--2--2--2------------------------------------5--------------
A|--3--3--3--2--2--2---------------------------------4--------7--------
E|--3--3--3--2--2--2--12--12/14--14b15b14--12--0--3--------6-----5-----



E|------------------------------------------------------------------------------
B|------------------------------------------------------------------------------
G|------------------------------------------------------------------------------
D|--------4--2--------------0-------------------4--2--------3-------------------
A|-----3--------3--------0----------0--------3--------3--------3-------8--------
E|--2--------------4--3--------3/5-----5--2--------------4--------3/8-----8--8--



E|------------------------------------------------------------------------------
B|------------------------------------------------------------------------------
G|------------------------------------------------------------------------------
D|--------4--2--------------0-------------------4--2--------3-------------------
A|-----3--------3--------0----------5--------3--------3-----3----0--2--3--3--3--
E|--2--------------4--3--------3/5-----5--2--------------4--3----0--2--3--3--3--



E|------------------------------------------------------------------------------
B|---------0-------------------------------------0------------------------------
G|---------4-------------------------------------4------------------------------
D|---------2----0--0--0--0--0--0--0--0----2------2----0--4--4--4--4--4--4--4----
A|--2-----------0--3--3--3--3--3--2--2p0--2-----------0--3--3--3--3--3--2--2p0--
E|--2-------------------------------------2-------------------------------------
http://www.guitartabcreator.com
Guitar Tab Creator is intended to store guitar tab created through the tool. It currently does not support in-line text editing. Any text you place in here will be lost. If you need to comment on your tab, please use the "Tab Notes" section located below.