Abigail's Basket

(/) Slide Up  (\) Slide Down  (h) Hammer On  (p) Pull Off  (b) Bend (r) Release (v) Vibrato

(W|WW) Whole (H|HH) Half (Q|QQ) Quarter (E|EE) 8th (S|SS) 16th (T|TT) 32nd (X|XX) 64th

t: T T T T undefined T T T T T T T undefined none none none none undefined none none none none none none none undefined none none
E|-------------|----------------------|-------------|----------------------|-----0--
B|-------------|----------------------|-------------|----------------------|-----0--
G|-------------|----------------------|-------------|----------------------|--------
D|-------------|----------------------|-------------|----------------------|--------
A|----------2--|--2h4--2-----0-----4--|--2-------2--|--2h4--2-----0--------|--------
E|--0--2h4-----|----------4-----4-----|-----2h4-----|----------4-----4--2--|--0-----


t: none none none none none none T none none none none T none none none none none none none none none none none none none none none none undefined
E|--------------------|--------------|--------------------|--------------|-------------|-----
B|--------------------|--------------|--------------------|--------------|-------------|-----
G|--------------------|--------------|--------------------|--------------|-------------|-----
D|--2-----------------|--------------|--2-----------------|--------------|-------------|-----
A|-----4--2--4--2-----|--2-----------|-----4--2--4--2-----|--2-----------|----------2--|-----
E|-----------------4--|-----4--2--0--|-----------------4--|-----4--2--0--|--0--2h4-----|-----


t: none none none none none none none none none
E|----------------------|-----
B|----------------------|-----
G|----------------------|-----
D|----------------------|-----
A|--2h4--2-----0--------|-----
E|----------4-----4--2--|--0--


t: none none none none none none none
E|--4--|--2--|--4--|-----
B|--5--|--2--|--5--|--2--
G|--6--|--3--|--6--|--2--
D|--6--|--4--|--6--|--2--
A|--4--|--4--|--4--|--0--
E|-----|--2--|-----|-----


t: none none none none none none none none none none none T none none none none none none none none none
E|-----------------|-----------------|-----------------|-----------
B|-----------------|-----------------|-----------------|-----------
G|-----------------|-----------------|-----------------|-----------
D|--4--2-----------|--4--2-----------|--4--2-----------|--4-----2--
A|--2--0-----2--2--|--2--0-----2--2--|--2--0-----2--2--|--2-----0--
E|--------4--0--0--|--------4--0--0--|--------4--0--0--|-----4-----
http://www.guitartabcreator.com
Guitar Tab Creator is intended to store guitar tab created through the tool. It currently does not support in-line text editing. Any text you place in here will be lost. If you need to comment on your tab, please use the "Tab Notes" section located below.