Riff 1, wartości rytmiczne w opisie/ szesnastki i triole ósemkowe; 4/4

(/) Slide Up  (\) Slide Down  (h) Hammer On  (p) Pull Off  (b) Bend (r) Release (v) Vibrato

E|-----------------------------------------------------------------------------
B|-----------------------------------------------------------------------------
G|-----------------------------------------------------------------------------
D|---------------------9--9--------------------------------9--9----------------
A|----------10--9--10--------10--9--10----------10--9--10--------10--9--10-----
E|--12--12------------------------------10--10---------------------------------



E|----------------------------------------------------------------------|-----
B|----------------------------------------------------------------------|-----
G|----------------------------------------------------------------------|-----
D|-------------------9--9------------------------------9--9-------------|--9--
A|--------10--9--10--------10--9--10--------10--9--10--------10--9--10--|--9--
E|--9--9------------------------------8--8------------------------------|--7--
http://www.guitartabcreator.com
Guitar Tab Creator is intended to store guitar tab created through the tool. It currently does not support in-line text editing. Any text you place in here will be lost. If you need to comment on your tab, please use the "Tab Notes" section located below.