Drop D medley (wówczas wszystkie dźwięki poza pustą struną dwa progi niżej + przy refrenie inny, drugi akord - B zamiast A#)

[code]
(/) Slide Up (\) Slide Down (h) Hammer On (p) Pull Off (b) Bend (r) Release (v) Vibrato


E|--------------------------------------|--------------------------------------|-----
B|--------------------------------------|--------------------------------------|-----
G|--------------------------------------|--------------------------------------|-----
D|--------5--------4--------5--------7--|--------5--------4--------5-----7-----|-----
A|-----7--------5--------7--------9-----|-----7--------5--------7-----------9--|-----
E|--0--------0--------0--------0--------|--0--------0--------0--------0--------|-----



E|--------------------------------------
B|--------------------------------------
G|--------------------------------------
D|--------5--------4--------5-----4-----
A|-----7--------5--------7-----------5--
E|--0--------0--------0--------0--------



E|------------------------------------------------------------------
B|------------------------------------------------------------------
G|-------------------------------7-------------------------------5--
D|-------------------------------7-------------------------------5--
A|-------------------------------5-------------------------------3--
E|--0--0--0h3p0--0--0--0--0h3h5-----0--0--0h3p0--0--0--0--0h3h5-----
[/code]
[url]http://www.guitartabcreator.com[/url]
Guitar Tab Creator is intended to store guitar tab created through the tool. It currently does not support in-line text editing. Any text you place in here will be lost. If you need to comment on your tab, please use the "Tab Notes" section located below.