My melody

(/) Slide Up  (\) Slide Down  (h) Hammer On  (p) Pull Off  (b) Bend (r) Release (v) Vibrato

Intro

E|-----------0-----------------0-----------------0-----------------2h3p2p0h2--
B|--------1-----1-----------1-----1-----------1-----1-----------3-------------
G|-----0-----------0-----0-----------0-----2-----------2-----2----------------
D|--------------------3-----------------2-----------------0-------------------
A|--3-------------------------------------------------------------------------
E|----------------------------------------------------------------------------



E|-----------0--------------0--0--0------------------------------
B|--------1-----0h1---------3--3--1--1-----------1------------3--
G|-----2--------------------4--4--2-----2-----2------------4-----
D|--3----------------3/4/5--5--5--3--------3--------3/4/5--------
A|---------------------------------------------------------------
E|---------------------------------------------------------------
http://www.guitartabcreator.com
Guitar Tab Creator is intended to store guitar tab created through the tool. It currently does not support in-line text editing. Any text you place in here will be lost. If you need to comment on your tab, please use the "Tab Notes" section located below.