E Major Blues Jam

(/) Slide Up  (\) Slide Down  (h) Hammer On  (p) Pull Off  (b) Bend (r) Release (v) Vibrato


E|---------------------------------------------------------
B|---------------------------------------------------------
G|-------------12-14-14b14r14p12---------------------------
D|-12/14-12/14-------------------14-12/14-12/14------------
A|----------------------------------------------14p12\10---
E|---------------------------------------------------------



E|------------------------------------12-15b15r15p12-------------------------------------------
B|------------------------------12-15----------------15-12-15b15b15r15p12----------------------
G|------------------------12-14-------------------------------------------14-12-14b14r14p12----
D|-------------9-10-12-14-------------------------------------------------------------------14-
A|-------10-12---------------------------------------------------------------------------------
E|-10-12---------------------------------------------------------------------------------------



E|-12-------------15-14-12-------------------------------------------------------------------
B|-12----------------------15-13-12----------------------------------------------------------
G|----14b12----12-------------------14-12-14b14b12----12----------12-14/15\14-12-14-14/15\14-
D|----------14-------------------------------------14----------14----------------------------
A|-------------------------------------------------------12-13-------------------------------
E|-------------------------------------------------------------------------------------------



E|-----------------------------------------------0-
B|-----------------------------------------------0-
G|-12----------------0h2-2/3\2-2p0---------------1-
D|----14-12-14\2-0h2---------------0h2-----------2-
A|-------------------------------------0-1-2-----2-
E|-------------------------------------------0-3-0-
http://www.guitartabcreator.com
Guitar Tab Creator is intended to store guitar tab created through the tool. It currently does not support in-line text editing. Any text you place in here will be lost. If you need to comment on your tab, please use the "Tab Notes" section located below.