Wicked Mix

(/) Slide Up  (\) Slide Down  (h) Hammer On  (p) Pull Off  (b) Bend (r) Release (v) Vibrato
E|-------14-14-14-14-14-14-14-------14-14-17-14-16b17-------14-14-14-14-14-14-14-------14-14-17---
B|-15b17----------------------15b17-------------------15b17----------------------15b17------------
G|------------------------------------------------------------------------------------------------
D|------------------------------------------------------------------------------------------------
A|------------------------------------------------------------------------------------------------
E|------------------------------------------------------------------------------------------------



E|-14-16-16-17-17-------14-14-14-14-14-14-14-------14-14-17-14-16-14-------14-14-14-14-14-14-14-------
B|----------------15b17----------------------15b17-------------------15b17----------------------15b17-
G|----------------------------------------------------------------------------------------------------
D|----------------------------------------------------------------------------------------------------
A|----------------------------------------------------------------------------------------------------
E|----------------------------------------------------------------------------------------------------



E|-12-12-15-12-------
B|-------------12----
G|----------------12-
D|-------------------
A|-------------------
E|-------------------



E|----------------------------------------------------------
B|----------------------------------------------------------
G|---------------------7------------------------------------
D|-7/9-9-9-9-9-9-9-------10-9-----9-9-7-9p7-7----7----------
A|-----------------7-7--------7-7-------------10---10-9-7---
E|----------------------------------------------------------



E|--------------------------------------------------------------------------------
B|--------------------------------------------------------------------------------
G|--------------------------------------------------------------------------------
D|---10-7-10-7-7----7------10-7-9-7-7----7---10-7-9-7-7----7------10-7-9-7-7----7-
A|-7-------------10---10-7------------10---7------------10---10-7------------10---
E|--------------------------------------------------------------------------------



E|--
B|--
G|--
D|--
A|--
E|--
http://www.guitartabcreator.com
Guitar Tab Creator is intended to store guitar tab created through the tool. It currently does not support in-line text editing. Any text you place in here will be lost. If you need to comment on your tab, please use the "Tab Notes" section located below.