She Wolf

(/) Slide Up  (\) Slide Down  (h) Hammer On  (p) Pull Off  (b) Bend (r) Release (v) Vibrato

E|-0-----0-----0---0-----0-----0---3-----3-----3---2-----2-----2---
B|-1-----1-----1---0-----0-----0---0-----0-----0---3-----3-----3---
G|-2-----2-----2---0-----0-----0---0-----0-----0---2-----2-----2---
D|-2-----2-----2---2-----2-----2---0-----0-----0---0-0-0-0-0-0-0-0-
A|-0-0-0-0-0-0-0-0-2-----2-----2---2-----2-----2-------------------
E|-----------------0-0-0-0-0-0-0-0-3-3-3-3-3-3-3-3-----------------



E|-----------------------------------------------------------------
B|-3-----3-----3---5-----5-----5---3-----3-----3---3-----3-----3---
G|---4-----4-----4---4-----4-----4---4-----4-----4---0-----0-----0-
D|-----5-----5---------5-----5---------4-----4---------4-----4-----
A|-----------------------------------------------------------------
E|-----------------------------------------------------------------



E|---------------------------------------------------------------------------------
B|---------------------------------------------------------------------------------
G|-----2-4-2-4-2-2-4-2-----0-2-0-2-0-0-2-0-----0-2-0-2-0-0-2-0---------------------
D|---2-------------------2-------------------0-------------------0-4-5-4-5-4-4-5-4-
A|-0-------------------------------------------------------------------------------
E|---------------------0-------------------3-------------------2-------------------
http://www.guitartabcreator.com
Guitar Tab Creator is intended to store guitar tab created through the tool. It currently does not support in-line text editing. Any text you place in here will be lost. If you need to comment on your tab, please use the "Tab Notes" section located below.