Play Hard

(/) Slide Up  (\) Slide Down  (h) Hammer On  (p) Pull Off  (b) Bend (r) Release (v) Vibrato

E|-----------------------------14--14--11-----------------------------12--12--11--
B|--12--12--9--12--12--11------------------12--12--9--12--12--11------------------
G|-------------------------11-------------------------------------11--------------
D|--------------------------------------------------------------------------------
A|--------------------------------------------------------------------------------
E|--------------------------------------------------------------------------------



E|--------------------------------------------------------------------------------------------------
B|--------------------------------------------------------------------------------------------------
G|--------------------------------------------------4--4--4--4--4--4--4--4--------------6--6--6--6--
D|--6--6--6--6--6--6--6--6--6--6--6--6--6--6--6--6--4--4--4--4--4--4--4--4--4--4--4--4--6--6--6--6--
A|--6--6--6--6--6--6--6--6--6--6--6--6--6--6--6--6--2--2--2--2--2--2--2--2--4--4--4--4--4--4--4--4--
E|--4--4--4--4--4--4--4--4--4--4--4--4--4--4--4--4--------------------------2--2--2--2--------------



E|--------------------------------------------------
B|--------------------------------------------------
G|--------------------------4--4--4--4--------------
D|--6--6--6--6--6--6--6--6--4--4--4--4--4--4--4--4--
A|--6--6--6--6--6--6--6--6--2--2--2--2--4--4--4--4--
E|--4--4--4--4--4--4--4--4--------------2--2--2--2--



E|--
B|--
G|--
D|--
A|--
E|--
http://www.guitartabcreator.com
Guitar Tab Creator is intended to store guitar tab created through the tool. It currently does not support in-line text editing. Any text you place in here will be lost. If you need to comment on your tab, please use the "Tab Notes" section located below.