Toxic Seahorse

[code]
(/) Slide Up (\) Slide Down (h) Hammer On (p) Pull Off (b) Bend (r) Release (v) Vibrato
E|--------------------------------------------------------------6--6--6-----------------------
B|-----------7--6--------------------------------------------------------9--7--6--9--7--6-----
G|-----8-----------8--8--6--8--------------------------------8--------------------------------
D|--8-----8--------------------8--6-----------------6--8--9-----------------------------------
A|-----------------------------------9--8--6--8--9--------------------------------------------
E|--------------------------------------------------------------------------------------------



E|-----------------------------------------------6-----------------------
B|--------------6--7--6--7-----------6--7--6--7-----9--7--6-----6--7-----
G|--7--7--7--8--------------8--8--8--------------------------8-----------
D|-----------------------------------------------------------------------
A|-----------------------------------------------------------------------
E|-----------------------------------------------------------------------



E|------------------------------------------------11----------8--9--8--10--10--11--13--11--
B|--7--9--11----7--9--11----7--9--11----7--9--11----------11-------------------------------
G|-----------------------------------------------------------------------------------------
D|-----------------------------------------------------------------------------------------
A|-----------------------------------------------------------------------------------------
E|-----------------------------------------------------------------------------------------



E|-----6---------------------------------------------------------
B|--------9--7--6--7--6--7----------9--7--9--6----------7--6-----
G|--8-----------------------8----7--------------7--7-------------
D|---------------------------------------------------------------
A|---------------------------------------------------------------
E|---------------------------------------------------------------



E|----------------------------------------------------------------------------------------
B|--7--6-------7--6-------7--6-------7--6-------7--6-------7--6-------7--6-------7--6-----
G|--------8----------8----------8----------8----------8----------8----------8----------8--
D|----------------------------------------------------------------------------------------
A|----------------------------------------------------------------------------------------
E|----------------------------------------------------------------------------------------



E|---------------------------------------------------------
B|-9-7-6-6---------6-6-7-9-9-7-6-9--9-11-9-8---7-6---------
G|---------8-7-7-8---------------------------------8-------
D|---------------------------------------------------8-6---
A|-------------------------------------------------------9-
E|---------------------------------------------------------
[/code]
[url]http://www.guitartabcreator.com[/url]
Guitar Tab Creator is intended to store guitar tab created through the tool. It currently does not support in-line text editing. Any text you place in here will be lost. If you need to comment on your tab, please use the "Tab Notes" section located below.