Toejam and Earl Slow: Toejam Slowjam

(/) Slide Up  (\) Slide Down  (h) Hammer On  (p) Pull Off  (b) Bend (r) Release (v) Vibrato

E|-----------------------------------------------------------------------------------------
B|-----------------------------------------------------------------------------------------
G|-----------------------------------------------------------------------------------------
D|-------4--6---------------4--6--6------------------4--6-------------4--6--6--------------
A|-------------------------------------4--6------------------------------------4--6--------
E|--4------------2--2--4---------------------7--4----------2--2--4-------------------7--4--



E|-----------------------------------------------------------------------------------------------
B|-----------------------------------------------------------------------------------------------
G|-----------------------------------------------------------------------------------------------
D|--4--6---------------4--6--6----------------------------------6--4-----------------------------
A|------------------------------4--6----------------------------------6--5--4-----4--------------
E|----------2--2--4-------------------7--4--2--2--4----4--7--4-----------------7-----7--4--7--4--



E|---------------------------------------------------------
B|---------------------------------------------------------
G|--6--6--4----6--6--4-----------7--6--4----3--4--3--4--6--
D|----------------------4--4--4----------------------------
A|---------------------------------------------------------
E|---------------------------------------------------------



E|----------------------------------------------------------------------
B|----------------------------------------------------------------------
G|--6--6--4----6--6--4--------13--11------------------------------------
D|----------------------4--4----------13--12--11--9---------------------
A|------------------------------------------------------------9h11--11--
E|---------------------------------------------------9h10h11------------



E|---------------------------------------------------------
B|---------------------------------------------------------
G|--6--6--4----6--6--4----------------7--6--4--------------
D|------------------------4--4--4--4-----------3--4--3-----
A|------------------------------------------------------6--
E|---------------------------------------------------------



E|------------------------------------------------------------------------------------
B|------------------------------------------------------------------------------------
G|--6--6--4----6--6--4----------------------13--11------------------------------------
D|--------------------------6p4---------------------13--12--11--9---------------------
A|-------------------------------6--5--4------------------------------------9h11--11--
E|-----------------------------------------------------------------9h10h11------------
http://www.guitartabcreator.com
Guitar Tab Creator is intended to store guitar tab created through the tool. It currently does not support in-line text editing. Any text you place in here will be lost. If you need to comment on your tab, please use the "Tab Notes" section located below.