Toejam and Earl

(/) Slide Up  (\) Slide Down  (h) Hammer On  (p) Pull Off  (b) Bend (r) Release (v) Vibrato
E|-------------------------------------------------------
B|-------------------------------------------------------
G|------12--10--10------10--12---------------------------
D|------------------12-----------------------------------
A|--10----------------------------10----------10--10-----
E|-------------------------------------------------------



E|----------------------------------------------------------------------------
B|----------------------------------------------------------------------------
G|------------------------------10------10----10------10------10------10--12--
D|----------------------------------12------------12------12------12----------
A|----------------------------------------------------------------------------
E|----------------------------------------------------------------------------



E|--------------------------------------------------------
B|--------------------------------------------------------
G|------12--10--10------10--12------------------------17--
D|------------------12------------------------15----------
A|--10--------------------------------------------15------
E|----------------------------------------13--------------



E|---------------------------------------------------------------------
B|---------------------------------------------------------------------
G|--------------------------15--15--14--12--10------10------12--12-----
D|----------------------------------------------12------12-------------
A|---------------------------------------------------------------------
E|---------------------------------------------------------------------



E|--------------------------------------------------------------------------
B|--------------------------------------------------------------------------
G|------12--10--10------10--12----------------------------------------------
D|------------------12------------------------------------------------------
A|--10----------------------------------10--10--8--8----------8------8------
E|----------------------------------------------------10--10-----10-----10--



E|------------------------------------------------------------------------------------------
B|------------------------------------------------------------------------------------------
G|--------------------------------------------10------10----10------10------10------10--12--
D|------------------------------------------------12------------12------12------12----------
A|------------------------------------------------------------------------------------------
E|------------------------------------------------------------------------------------------



E|----------------------------------------------------------------------------------
B|----------------------------------------------------------------------------------
G|------12--10----10------10--12----------15--15--14--12----10------10------12--12--
D|--------------------12----------------------------------------12------12----------
A|--10------------------------------------------------------------------------------
E|----------------------------------------------------------------------------------



E|----------------------------------------------------------------------------------
B|----------------------------------------------------------------------------------
G|----------------------------------------15--15--14--12----10------10------12--12--
D|--------------------------------------------------------------12------12----------
A|----------------------------------------------------------------------------------
E|----------------------------------------------------------------------------------



E|----------------------------------------------------------------------------
B|----------------------------------------------------------------------------
G|---------------------------------------------------------10-----------------
D|---------------------------10--10------10--12----------------12--10---------
A|--10--8--10----12--13--14----------13------------10--10--------------13--8--
E|----------------------------------------------------------------------------



E|----------------------------------------------------------------
B|----------------------------------------------------------------
G|----------------------------------------------------------------
D|---------------------------10--10------10--------12---------10--
A|--10--8--10----12--13--14----------13---------------------------
E|---------------------------------------------10------10--8------



E|----------------------------------------------------------------------------
B|----------------------------------------------------------------------------
G|---------------------------------------------------------10-----------------
D|---------------------------10--10------10--12----------------12--10---------
A|--10--8--10----12--13--14----------13------------10--10--------------13--8--
E|----------------------------------------------------------------------------



E|---------------------------------------------------------
B|---------------------------------------------------------
G|---------------------------------------------------------
D|---------------------------10--10------10----------------
A|--10--8--10----12--13--14----------13--------7--7--8--9--
E|---------------------------------------------------------
http://www.guitartabcreator.com
Guitar Tab Creator is intended to store guitar tab created through the tool. It currently does not support in-line text editing. Any text you place in here will be lost. If you need to comment on your tab, please use the "Tab Notes" section located below.