MMX3 - Volt Catfish

(/) Slide Up  (\) Slide Down  (h) Hammer On  (p) Pull Off  (b) Bend (r) Release (v) Vibrato
E|----------------------------------------------------------------------------------
B|------------------------------14--13----------------------13----------------------
G|--15----------15----------15----------15------------------------------------------
D|------16--13------16--13------------------16--13--15--16------16--15--13----------
A|--------------------------------------------------------------------------13--16--
E|----------------------------------------------------------------------------------



E|--------------------------------------------------------------------------
B|----------------------------------------------------------14--16--18--18--
G|----------------------13------13------15--------------13------------------
D|----------13--15--16------16------16------13--15--16----------------------
A|--14--13------------------------------------------------------------------
E|--------------------------------------------------------------------------



E|---------------------------------------------------------------------------
B|-18-16-14-18-16-14-18-16-14-18-16-14---19-16-14-19-16-14-19-16-14-19-16-14-
G|---------------------------------------------------------------------------
D|---------------------------------------------------------------------------
A|---------------------------------------------------------------------------
E|---------------------------------------------------------------------------



E|---------------------------------------------------------------------------
B|-21-18-16-21-18-16-21-18-16-21-18-16---19-16-14-19-16-14-19-16-14-19-16-14-
G|---------------------------------------------------------------------------
D|---------------------------------------------------------------------------
A|---------------------------------------------------------------------------
E|---------------------------------------------------------------------------



E|---------------------------------------------------------------------------
B|-18-16-14-18-16-14-18-16-14-18-16-14---19-16-14-19-16-14-19-16-14-19-16-14-
G|---------------------------------------------------------------------------
D|---------------------------------------------------------------------------
A|---------------------------------------------------------------------------
E|---------------------------------------------------------------------------



E|---------------------------------------19-16-13-19-16-13-19-16-13-19-16-13-20-
B|-21-18-16-21-18-16-21-18-16-21-18-16------------------------------------------
G|------------------------------------------------------------------------------
D|------------------------------------------------------------------------------
A|------------------------------------------------------------------------------
E|------------------------------------------------------------------------------



E|-------------------15-16-15----15----------------------------------------------
B|-16-18-16-15----------------18-------------15-16-----15-16--15-16-18--15-16-18-
G|-------------17-16----------------17-16-17--------17---------------------------
D|-------------------------------------------------------------------------------
A|-------------------------------------------------------------------------------
E|-------------------------------------------------------------------------------



E|----------15------------15--20----------19--20--19--18--17--16--15--14--13--15--
B|--16--18--------16--18----------------------------------------------------------
G|--------------------------------------------------------------------------------
D|--------------------------------------------------------------------------------
A|--------------------------------------------------------------------------------
E|--------------------------------------------------------------------------------
http://www.guitartabcreator.com
Guitar Tab Creator is intended to store guitar tab created through the tool. It currently does not support in-line text editing. Any text you place in here will be lost. If you need to comment on your tab, please use the "Tab Notes" section located below.