Mega Man X3 - Intro Stage

(/) Slide Up  (\) Slide Down  (h) Hammer On  (p) Pull Off  (b) Bend (r) Release (v) Vibrato

E|------------------------------------------------------------------------------------------------
B|--------------------------------------------------------------------------------------------15--
G|--14--15--17--14--------12--14--15----12--14--15----12--14--15----12--14--15----12--14--15------
D|------------------15----------------------------------------------------------------------------
A|------------------------------------------------------------------------------------------------
E|------------------------------------------------------------------------------------------------



E|------------------------------------------------------------------------------------------------13--
B|--13------------------------------------------------------------------------------------------------
G|------15--14--12--14--15----12--14--15----12--14--15----12--14--15----12--14--15----12--14--15------
D|----------------------------------------------------------------------------------------------------
A|----------------------------------------------------------------------------------------------------
E|----------------------------------------------------------------------------------------------------



E|-15-------18-17----------------------------------------------------------------------------------
B|----15------------15-13-11--15-13-11--15-13-11--15-13-11--15-13-11--15-13-11--15-13-11--15-13-11-
G|-------17----------------------------------------------------------------------------------------
D|-------------------------------------------------------------------------------------------------
A|-------------------------------------------------------------------------------------------------
E|-------------------------------------------------------------------------------------------------



E|--------------------------------------------------------------
B|-15-13-11--15-13-11--15-13-11--15-13-11--15-13-11--15-13-11---
G|--------------------------------------------------------------
D|--------------------------------------------------------------
A|--------------------------------------------------------------
E|--------------------------------------------------------------



E|-------------------------------------------13-15----17-15----15--------------------
B|-------------------------13----13-15-13-15----------------18-----------------------
G|----12-14-12-14-15-14-15----15----------------------------------17-15--14----14----
D|-15-----------------------------------------------------------------------17----17-
A|-----------------------------------------------------------------------------------
E|-----------------------------------------------------------------------------------



E|------------------------------------------------------------15----17----18----20--
B|------------------------------------------------15----18--------------------------
G|--14--15--17--14------14--14------14--15--17--------------------------------------
D|------------------15----------17--------------------------------------------------
A|----------------------------------------------------------------------------------
E|----------------------------------------------------------------------------------
http://www.guitartabcreator.com
Guitar Tab Creator is intended to store guitar tab created through the tool. It currently does not support in-line text editing. Any text you place in here will be lost. If you need to comment on your tab, please use the "Tab Notes" section located below.