F-zero Big blue

(/) Slide Up  (\) Slide Down  (h) Hammer On  (p) Pull Off  (b) Bend (r) Release (v) Vibrato

E|--------------------------------------------------------------------------------------------------
B|----------------------------------------------11----------11------11--13--11--13--14--13--14--16--
G|----------------------------------10------10----------13------13----------------------------------
D|------10--12--10--12--13--12--13------13----------13----------------------------------------------
A|--13----------------------------------------------------------------------------------------------
E|--------------------------------------------------------------------------------------------------



E|---------16--------------------------16--20--16--21--20--18-----------------------------------------
B|--16/18------18--------------18--18--------------------------18----------21--19--18----------18--21-
G|-----------------17------17------------------------------------------18------------------18---------
D|---------------------18------------------------------------------20------------------20-------------
A|----------------------------------------------------------------------------------------------------
E|----------------------------------------------------------------------------------------------------
http://www.guitartabcreator.com
Guitar Tab Creator is intended to store guitar tab created through the tool. It currently does not support in-line text editing. Any text you place in here will be lost. If you need to comment on your tab, please use the "Tab Notes" section located below.