clean 1

(/) Slide Up  (\) Slide Down  (h) Hammer On  (p) Pull Off  (b) Bend (r) Release (v) Vibrato
E|--------------------------------------------------
B|--------------------------------------------------
G|--------------------------------------------------
D|--------------------------------------------------
A|--------------------------------------------------
E|--0--0--0--0--0--0--0--4--0--3--3--3--3--3--3--6--



E|----------------------------------------
B|----------------------------------------
G|----------------------------------------
D|----------------------------------------
A|-----10-----10--12--10--9--8--9--9--12--
E|--0------0------12----------------------



E|----------------------------------------------------------
B|----------12--10----------------------12--10--------------
G|------11----------10--11----------11----------10--11--14--
D|--10----------------------10--10--------------------------
A|----------------------------------------------------------
E|----------------------------------------------------------
http://www.guitartabcreator.com
Guitar Tab Creator is intended to store guitar tab created through the tool. It currently does not support in-line text editing. Any text you place in here will be lost. If you need to comment on your tab, please use the "Tab Notes" section located below.