Folsom Prison Blues - by Johnny Cash with Luther Perkins on Guitar

(/) Slide Up  (\) Slide Down  (h) Hammer On  (p) Pull Off  (b) Bend (r) Release (v) Vibrato
E|-------------------------
B|-------------------------
G|-------------------------
D|-----------1--1----------
A|--2--2--2--------2-------
E|--------------------2b0--



E|--------------|--------------
B|--------------|--------------
G|--------------|--------------
D|-----2-----2--|--------------
A|--------2-----|--------------
E|--0-----------|--0--0--2--4--



E|--------------|--------------|--------------|--------------
B|--------------|--------------|--------------|--------------
G|--------------|--------------|--------------|--------------
D|-----2-----2--|-----2-----2--|-----2-----2--|-----2-----2--
A|--0-----------|--0-----------|--0-----------|--0-----------
E|--------0-----|--------0-----|--------0-----|--------0-----



E|--------------|--------------|--------------|--------------
B|--------------|--------------|--------------|--------------
G|--------------|--------------|--------------|--------------
D|-----1-----1--|-----1-----1--|-----1-----1--|-----1-----1--
A|--2-----------|--2-----------|--2-----------|--2-----------
E|--------2-----|--------2-----|--------2-----|--------2-----



E|--------------|--------------
B|--------------|--------------
G|--------------|--------------
D|-----2-----2--|-----2-----2--
A|--------2-----|--------2-----
E|--0-----------|--0-----------



E|-------7--10--7--10--7--|-------7--10--7--10--|-------7--10--7--10--7--|-------7--10--7--10--7--4-----
B|--8h9-------------------|--8h9----------------|--8h9-------------------|--8h9----------------------5--
G|------------------------|---------------------|------------------------|------------------------------
D|------------------------|---------------------|------------------------|------------------------------
A|------------------------|---------------------|------------------------|------------------------------
E|------------------------|---------------------|------------------------|------------------------------



E|-----5--5--5--5----5--5--0-----|--6--------0-----|---------9--0-----
B|-----2--2--2--2----2--2-----0--|-----5--------0--|-----10-----------
G|-----2--2--2--2----2--2--------|--------5--------|--9------------0--
D|-------------------------------|-----------------|------------------
A|--0----------------------------|-----------------|------------------
E|-------------------------------|-----------------|------------------



E|-----------|-----------|-----------|-----------
B|-----------|-----------|-----------|-----------
G|-----0--0--|-----0--0--|-----0--0--|-----0--0--
D|-----2-----|-----2-----|-----2-----|-----2-----
A|-----2-----|-----2-----|-----2-----|-----2-----
E|--0--------|--0--------|--0--------|--0--------



E|-----2--|-----2--|--------------------------
B|--------|--------|--------------------------
G|-----2--|-----2--|--------------------------
D|-----1--|-----1--|--------------------------
A|--0--2--|--0--2--|--3----3----3--2--0-------
E|--------|--------|---------------------2b0--



E|-------------------------|--
B|-------------------------|--
G|-------------------------|--
D|-----------2--2----------|--
A|--3--3--3--------3-------|--
E|--------------------3b1--|--
http://www.guitartabcreator.com
Guitar Tab Creator is intended to store guitar tab created through the tool. It currently does not support in-line text editing. Any text you place in here will be lost. If you need to comment on your tab, please use the "Tab Notes" section located below.