Falling Apart tab

(/) Slide Up  (\) Slide Down  (h) Hammer On  (p) Pull Off  (b) Bend (r) Release (v) Vibrato (.) Palm Mute

Intro:
E|-------------------------|--------------------------|-------------------------|--------------------------|-----
B|-------------------------|--------------------------|-------------------------|--------------------------|-----
G|-------------------------|--------------------------|-------------------------|--------------------------|-----
D|--0~~--0--0--0--0--0--0--|--3--3--3--3--2--2--2--2--|-------------------------|--3--3--3--3--2--2--2--2--|-----
A|-------------------------|--------------------------|--3~~--3--3--3--3--3--3--|--------------------------|-----
E|-------------------------|--------------------------|-------------------------|--------------------------|-----


repeat
E|-------------------------|--------------------------|-------------------------|--------------------------||--
B|-------------------------|--------------------------|-------------------------|--------------------------||--
G|-------------------------|--------------------------|--3~~--3--3--3--3--3--3--|--/5~~--5--5--5--5--5--5-.||--
D|--0~~--0--0--0--0--0--0--|--3--3--3--3--2--2--2--2--|-------------------------|-------------------------.||--
A|-------------------------|--------------------------|-------------------------|--------------------------||--
E|-------------------------|--------------------------|-------------------------|--------------------------||--




Chorus:
E|-------------------------|-------------------------|-------------------------|-------------------------|--
B|-------------------------|-------------------------|-------------------------|-------------------------|--
G|--7--7--7--7--7~~--7--7--|-------------------------|-------------------------|-------------------------|--
D|--7--7--7--7--7~~--7--7--|--8--8--8--8--8~~--8--8--|--7--7--7--7--8----10----|--5--5--5--5--5~~--5--5--|--
A|--5--5--5--5--5~~--5--5--|--8--8--8--8--8~~--8--8--|--7--7--7--7--x----x-----|--5--5--5--5--5~~--5--5--|--
E|-------------------------|--6--6--6--6--6~~--6--6--|--5--5--5--5--6----8-----|--3--3--3--3--3~~--3--3--|--


repeat, then 2nd ending ______
E|-------------------------|-------------------------||-------------------------|--
B|-------------------------|-------------------------||-------------------------|--
G|-------------------------|--5--5--5--5--5~~--5--5-.||-------------------------|--
D|--3--3--3--3--3~~--3--3--|--5--5--5--5--5~~--5--5-.||--3--3--3--3--3~~--3--3--|--
A|--3--3--3--3--3~~--3--3--|--3--3--3--3--3~~--3--3--||--3--3--3--3--3~~--3--3--|--
E|--1--1--1--1--1~~--1--1--|-------------------------||--1--1--1--1--1~~--1--1--|--


______________________________________________________________________________________________________
E|-------------------------|-------------------------|-------------------------|----------------------||
B|-------------------------|-------------------------|-------------------------|----------------------||
G|-------------------------|-------------------------|-------------------------|----------------------||
D|--5~~~-------------------|--5~~~-------------------|--5~~~-------------------|----------------------||
A|--5~~~-------------------|--5~~~-------------------|--5~~~-------------------|----------------------||
E|--3~~~-------------------|--3~~~-------------------|--3~~~-------------------|----------------------||




Verse:
E|--------------------------|--------------------------|--------------------------|--------------------------|--
B|--------------------------|--------------------------|--------------------------|--------------------------|--
G|--------------------------|--------------------------|--------------------------|--------------------------|--
D|--------------------------|--------------------------|--------------------------|--------------------------|--
A|--5--5--5--5--5--5--5--5--|--------------------------|--------------------------|--1--1--1--1--3--3--3--3--|--
E|--------------------------|--1--1--1--1--1--1--1--1--|--3--3--3--3--3--3--3--3--|--------------------------|--



E|--------------------------|--------------------------|--------------------------|--------------------------|--
B|--------------------------|--------------------------|--------------------------|--------------------------|--
G|--------7-----------7-----|--------------------------|--------------------------|--------3-----------5-----|--
D|--------7-----------7-----|--------3-----------3-----|--------5-----------5-----|--------3-----------5-----|--
A|--5--5--5--5--5--5--5--5--|--------3-----------3-----|--------5-----------5-----|--1--1--1--1--3--3--3--3--|--
E|--------------------------|--1--1--1--1--1--1--1--1--|--3--3--3--3--3--3--3--3--|--------------------------|--



E|--------------------------|--------------------------|---------------------------|-------------------------|--
B|--------------------------|--------------------------|---------------------------|-------------------------|--
G|--------3-----------3-----|--------3-----------3-----|---------5-----------5-----|--5~~~-------------------|--
D|--------3-----------3-----|--------3-----------3-----|---------5-----------5-----|--5~~~-------------------|--
A|--1--1--1--1--1--1--1--1--|--1--1--1--1--1--1--1--1--|--/3--3--3--3--3--3--3--3--|--3~~~-------------------|--
E|--------------------------|--------------------------|---------------------------|-------------------------|--




Bridge:
E|------------------------|------------------------|------------------------|------------------------|--
B|------------------------|------------------------|------------------------|------------------------|--
G|------------------------|------------------------|------------------------|--5----------------5----|--
D|--7----------------7----|--8----------------8----|--5----------------5----|--5----------------5----|--
A|--7----------------7----|--8----------------8----|--5----------------5----|--3----3--3--3--3--3----|--
E|--5----5--5--5--5--5----|--6----6--6--6--6--6----|--3----3--3--3--3--3----|------------------------|--
. . . . . . . . . . . . . . . .


E|------------------------|------------------------|------------------------|------------------------|-----
B|------------------------|------------------------|------------------------|------------------------|-----
G|------------------------|------------------------|------------------------|--5----------6~~~-------|-----
D|--7----------------7----|--8----------------8----|--5----------------5----|--5----------6~~~-------|-----
A|--7----------------7----|--8----------------8----|--5----------------5----|--3----3--3--4~~~-------|-----
E|--5----5--5--5--5--5----|--6----6--6--6--6--6----|--3----3--3--3--3--3----|------------------------|-----
. . . . . . . . . . . . . .


Order:
Intro
Chorus
Verse (Palm Muted)
Chorus
Verse (Open)
Chorus
Bridge
Solo (Chorus chords)
Chorus
Intro
Guitar Tab Creator is intended to store guitar tab created through the tool. It currently does not support in-line text editing. Any text you place in here will be lost. If you need to comment on your tab, please use the "Tab Notes" section located below.