Falling Apart

(/) Slide Up  (\) Slide Down  (h) Hammer On  (p) Pull Off  (b) Bend (r) Release (v) Vibrato

Intro:
E|-----------------------|--------------------------|-----------------------|--------------------------|--
B|-----------------------|--------------------------|-----------------------|--------------------------|--
G|-----------------------|--------------------------|-----------------------|--------------------------|--
D|--0--0--0--0--0--0--0--|--3--3--3--3--2--2--2--2--|-----------------------|--3--3--3--3--2--2--2--2--|--
A|-----------------------|--------------------------|--3--3--3--3--3--3--3--|--------------------------|--
E|-----------------------|--------------------------|-----------------------|--------------------------|--


E|-----------------------|--------------------------|-----------------------|------------------------|--
B|-----------------------|--------------------------|-----------------------|------------------------|--
G|-----------------------|--------------------------|--3--3--3--3--3--3--3--|--/5--5--5--5--5--5--5--|--
D|--0--0--0--0--0--0--0--|--3--3--3--3--2--2--2--2--|-----------------------|------------------------|--
A|-----------------------|--------------------------|-----------------------|------------------------|--
E|-----------------------|--------------------------|-----------------------|------------------------|--


Chorus:
E|-----------------------|-----------------------|-----------------------
B|-----------------------|-----------------------|-----------------------
G|--7--7--7--7--7--7--7--|--------------8--------|-----------------------
D|--7--7--7--7--7--7--7--|--8--8--8--8--8--8--8--|--7--7--7--7--8----10--
A|--5--5--5--5--5--5--5--|--8--8--8--8--8--8--8--|--7--7--7--7--x----x---
E|-----------------------|--6--6--6--6--6--6--6--|--5--5--5--5--6----8---
http://www.guitartabcreator.com
Guitar Tab Creator is intended to store guitar tab created through the tool. It currently does not support in-line text editing. Any text you place in here will be lost. If you need to comment on your tab, please use the "Tab Notes" section located below.