Have Yourself a Very Merry Christmas - Part 2

(/) Slide Up  (\) Slide Down  (h) Hammer On  (p) Pull Off  (b) Bend (r) Release (v) Vibrato


E|-----------4--------------|--------3--|--5--------------|--|--
B|-----0--3-----3-----------|-----3--3--|--5--8--7--5--4--|--|--
G|--0-----2-----------0-----|--4--2--4--|--5--------5--6--|--|--
D|--4-----2--------2-----4--|--4--2-----|-----------5--7--|--|--
A|--------2-----0-----------|-----------|--0--------------|--|--
E|--3-----------------------|--3--2--0--|-----------6--7--|--|--



E|--------------|-----5--5--6--|--7-----7--7--5--3--
B|--8-----8--7--|--6--8--6--4--|--8--8-----7--4-----
G|--7-----7--6--|--5--7--5--4--|--5--5-----5--3-----
D|--5-----5--4--|--5--7--5--3--|--------------------
A|--7-----7--6--|--5--7--------|--7--7-----6--3-----
E|-----0--------|--------------|--------------------



E|--
B|--
G|--
D|--
A|--
E|--
http://www.guitartabcreator.com
Guitar Tab Creator is intended to store guitar tab created through the tool. It currently does not support in-line text editing. Any text you place in here will be lost. If you need to comment on your tab, please use the "Tab Notes" section located below.