Never Too Late

(/) Slide Up  (\) Slide Down  (h) Hammer On  (p) Pull Off  (b) Bend (r) Release (v) Vibrato
E|------------------------------------------------------------------
B|------------------------------------------------------------------
G|------------------------------------------------------------------
D|--------10--------0--10--8--7--0--------10--------0--10--8--7--0--
A|-----8------8------------------------8------8---------------------
E|--8------------0------------------8------------0------------------



E|---------------------------------------------------
B|---------------------------------------------------
G|---------------------------------------------------
D|--------10--------0--10--8--7--0--------10-----10--
A|-----8------8------------------------7------7--10--
E|--8------------0------------------7------------10--



E|------------------------------------------------------------------
B|------------------------------------------------------------------
G|------------------------------------------------------------------
D|--------10--------0--10--8--7--0--------10--------0--10--8--7--0--
A|-----8------8------------------------8------8---------------------
E|--8------------0------------------8------------0------------------



E|---------------------------------------------------
B|---------------------------------------------------
G|---------------------------------------------------
D|--------10--------0--10--8--7--0--------10-----10--
A|-----8------8------------------------7------7--10--
E|--8------------0------------------7------------10--



E|------------------------------------------------------------------
B|------------------------------------------------------------------
G|------------------------------------------------------------------
D|--------10--------0--10--8--7--0--------10--------0--10--8--7--0--
A|-----8------8------------------------8------8---------------------
E|--8------------0------------------8------------0------------------



E|---------------------------------------------------
B|---------------------------------------------------
G|---------------------------------------------------
D|--------10--------0--10--8--7--0--------10-----10--
A|-----8------8------------------------7------7--10--
E|--8------------0------------------7------------10--



E|-------------------------------------------------------
B|-------------------------------------------------------
G|-------------------------------------------------------
D|--0--0--0--8--8--8--8--8--7--7--7--10--10--10--10--10--
A|--0--0--0--8--8--8--8--8--7--7--7--10--10--10--10--10--
E|--0--0--0--8--8--8--8--8--7--7--7--10--10--10--10--10--



E|----------------------------------------------------------
B|----------------------------------------------------------
G|----------------------------------------------------------
D|--0--0--0--8--8--8--8--8--7--7--7--10--10--10--10--10-----
A|--0--0--0--8--8--8--8--8--7--7--7--10--10--10--10--10-----
E|--0--0--0--8--8--8--8--8--7--7--7--10--10--10--10--10-----



E|-------------------------------------------------------
B|-------------------------------------------------------
G|-------------------------------------------------------
D|--0--0--0--8--8--8--8--8--7--7--7--10--10--10--10--10--
A|--0--0--0--8--8--8--8--8--7--7--7--10--10--10--10--10--
E|--0--0--0--8--8--8--8--8--7--7--7--10--10--10--10--10--



E|---------------------------------------------
B|---------------------------------------------
G|---------------------------------------------
D|--8--8--8--8--0--0--0--0--0--7--7--7--7--10--
A|--8--8--8--8--0--0--0--0--0--7--7--7--7--10--
E|--8--8--8--8--0--0--0--0--0--7--7--7--7--10--



E|--------------------------------------------------------------------------------
B|----------13-------------13----------------------13-------------13--------------
G|-----------------------------15--14---------------------------------15--14------
D|------15------15-----12--------------15------15------15-----12--------------15--
A|--13-------------------------------------13-------------------------------------
E|------------------0--------------------------------------0----------------------



E|--------------------------------------------------------------------------------
B|----------13-------------13----------------------13-------------13--------------
G|-----------------------------15--14---------------------------------15--14------
D|------15------15-----12--------------15------15------15-----12--------------15--
A|--13-------------------------------------13-------------------------------------
E|------------------0--------------------------------------0----------------------



E|--------------------------------------------------------------------------------
B|----------13-------------13----------------------13-------------13--------------
G|-----------------------------15--14---------------------------------15--14------
D|------15------15-----12--------------15------15------15-----12--------------15--
A|--13-------------------------------------13-------------------------------------
E|------------------0--------------------------------------0----------------------



E|-------------------------------------------------------------
B|----------13------13----------13-------------13--------------
G|------------------12-----------------------------------------
D|------14------14--10------15------15-----12------15--14------
A|--12------------------13---------------------------------15--
E|--------------------------------------0----------------------



E|--------------------------------------------------------------------------------
B|----------13-------------13----------------------13-------------13--------------
G|-----------------------------15--14---------------------------------15--14------
D|------15------15-----12--------------15------15------15-----12--------------15--
A|--13-------------------------------------13-------------------------------------
E|------------------0--------------------------------------0----------------------



E|----------------------17------15------17------15---------
B|----------13------13------15------13------15------13-----
G|------------------12-------------------------------------
D|------14------14--10-------------------------------------
A|--12-----------------------------------------------------
E|---------------------------------------------------------



E|--17--13------17--13------17--13------17--13------17--13----------
B|----------15----------15----------15----------15----------15------
G|--------------------------------------------------------------14--
D|------------------------------------------------------------------
A|------------------------------------------------------------------
E|------------------------------------------------------------------



E|--12----------12----------12----------12----------12----------
B|------13----------13----------13----------13----------13------
G|----------14----------14----------14----------14----------14--
D|--------------------------------------------------------------
A|--------------------------------------------------------------
E|--------------------------------------------------------------



E|------|--17--13------17--13------17--13------17--13------17--13----------
B|------|----------15----------15----------15----------15----------15------
G|------|--------------------------------------------------------------14--
D|--15--|------------------------------------------------------------------
A|------|------------------------------------------------------------------
E|------|------------------------------------------------------------------



E|--12----------12----------12----------12----------12----------12--
B|------13----------13----------13----------13----------13----------
G|----------14----------14----------14----------14----------14------
D|------------------------------------------------------------------
A|------------------------------------------------------------------
E|------------------------------------------------------------------



E|--------------------------------------------------------------
B|--------------------------------------------------------------
G|--------------------------------------------5--5--5--5--5--5--
D|--8--8--8--8--8--8--8--8--8--8--8--8--3--3--5--5--5--5--5--5--
A|--8--8--8--8--8--8--8--8--8--8--8--8--3--3--3--3--3--3--3--3--
E|--8--8--8--8--8--8--8--8--8--8--8--8--3--3--------------------



E|--------------------------------------------------------------
B|--------------------------------------------------------------
G|--------------------------------------------5--5--5--5--5--5--
D|--8--8--8--8--8--8--8--8--8--8--8--8--3--3--5--5--5--5--5--5--
A|--8--8--8--8--8--8--8--8--8--8--8--8--3--3--3--3--3--3--3--3--
E|--8--8--8--8--8--8--8--8--8--8--8--8--3--3--------------------



E|--------------------------------------------------------------
B|--------------------------------------------------------------
G|--------------------------------------------5--5--5--5--5--5--
D|--8--8--8--8--8--8--8--8--8--8--8--8--3--3--5--5--5--5--5--5--
A|--8--8--8--8--8--8--8--8--8--8--8--8--3--3--3--3--3--3--3--3--
E|--8--8--8--8--8--8--8--8--8--8--8--8--3--3--------------------



E|------------------------------------------------
B|------------------------------------------------
G|------------------------------------------------
D|--8--8--8--8--8--8--8--8--7--7--7--7--x--x--10--
A|--8--8--8--8--8--8--8--8--7--7--7--7--x--x--10--
E|--8--8--8--8--8--8--8--8--7--7--7--7--x--x--10--



E|---------------------------------------------------------
B|---------------------------------------------------------
G|---------------------------------------------------------
D|--------10-----12--------10-----12--------10-----12------
A|-----8----------------8----------------8-------------10--
E|--8---------0------8---------0------8---------0------10--



E|-------------------------------------------------------
B|-------------------------------------------------------
G|-------------------------------------------------------
D|--0--0--0--8--8--8--8--8--7--7--7--10--10--10--10--10--
A|--0--0--0--8--8--8--8--8--7--7--7--10--10--10--10--10--
E|--0--0--0--8--8--8--8--8--7--7--7--10--10--10--10--10--



E|-------------------------------------------------------
B|-------------------------------------------------------
G|-------------------------------------------------------
D|--0--0--0--8--8--8--8--8--7--7--7--10--10--10--10--10--
A|--0--0--0--8--8--8--8--8--7--7--7--10--10--10--10--10--
E|--0--0--0--8--8--8--8--8--7--7--7--10--10--10--10--10--



E|-------------------------------------------------------
B|-------------------------------------------------------
G|-------------------------------------------------------
D|--0--0--0--8--8--8--8--8--7--7--7--10--10--10--10--10--
A|--0--0--0--8--8--8--8--8--7--7--7--10--10--10--10--10--
E|--0--0--0--8--8--8--8--8--7--7--7--10--10--10--10--10--



E|-------------------------------------------------------------------------
B|-------------------------------------------------------------------------
G|-------------------------------------------------------------------------
D|--8--8--8--8--0--0--0--0--0--7--7--7--7--10--10--10--10--10--10--10--10--
A|--8--8--8--8--0--0--0--0--0--7--7--7--7--10--10--10--10--10--10--10--10--
E|--8--8--8--8--0--0--0--0--0--7--7--7--7--10--10--10--10--10--10--10--10--



E|-------------------------------------------------------------------------
B|-------------------------------------------------------------------------
G|-------------------------------------------------------------------------
D|--8--8--8--8--0--0--0--0--0--7--7--7--7--10--10--10--10--10--10--10--10--
A|--8--8--8--8--0--0--0--0--0--7--7--7--7--10--10--10--10--10--10--10--10--
E|--8--8--8--8--0--0--0--0--0--7--7--7--7--10--10--10--10--10--10--10--10--



E|---------------------------------------------
B|---------------------------------------------
G|---------------------------------------------
D|--8--8--8--8--0--0--0--0--0--7--7--7--7--10--
A|--8--8--8--8--0--0--0--0--0--7--7--7--7--10--
E|--8--8--8--8--0--0--0--0--0--7--7--7--7--10--



E|------------------------------------------------------------------
B|------------------------------------------------------------------
G|------------------------------------------------------------------
D|--------10--------0--10--8--7--0--------10--------0--10--8--7--0--
A|-----8------8------------------------8------8---------------------
E|--8------------0------------------8------------0------------------



E|---------------------------------------------------
B|---------------------------------------------------
G|---------------------------------------------------
D|--------10--------0--10--8--7--0--------10-----10--
A|-----8------8------------------------7------7--10--
E|--8------------0------------------7------------10--
http://www.guitartabcreator.com
Guitar Tab Creator is intended to store guitar tab created through the tool. It currently does not support in-line text editing. Any text you place in here will be lost. If you need to comment on your tab, please use the "Tab Notes" section located below.