#1

(/) Slide Up  (\) Slide Down  (h) Hammer On  (p) Pull Off  (b) Bend (r) Release (v) Vibrato
E|--------------------------------------------------------
B|--------------------------------------------------------
G|--------------------------------------------------------
D|-----1-----------5-----4-----------4-----5-----4--------
A|--1--------3--5-----4--------5--4-----5-----4--------5--
E|--------1-----------------5-----------------------5-----



E|-------------------------------------------------------
B|-------------------------------------------------------
G|-------------------------------------------------------
D|-----1-----------5-----4-----------4-----5-------------
A|--1--------3--5-----4--------5--4-----5-----3h5--3-----
E|--------1-----------------5-------------------------5--



E|-----------------------------------------------------------------------------------
B|-----------------------------------------------------------------------------------
G|-----------------------------------------------------------------------------------
D|-----------------------3-----3--------7--------7-----6--------6-----5--------------
A|-----------------3--1-----1--------5--------5-----4--------4-----3-----------------
E|--0--0--0--0--1-----------------3--------6--------------5--------------4-----------
http://www.guitartabcreator.com
Guitar Tab Creator is intended to store guitar tab created through the tool. It currently does not support in-line text editing. Any text you place in here will be lost. If you need to comment on your tab, please use the "Tab Notes" section located below.