RHCP - Soul To Squeeze

(/) Slide Up  (\) Slide Down  (h) Hammer On  (p) Pull Off  (b) Bend (r) Release (v) Vibrato
E|--------|--------|-------------------------------|--------|--------------------------|--
B|--------|--------|-------------------------------|--------|--------------------------|--
G|--------|--------|--/14----------14------14--16--|--14----|--------------------------|--
D|--------|--------|-------14--16------16----------|--------|--------------------------|--
A|--------|--------|-------------------------------|--------|--0--0--0--0--0--0--0--0--|--
E|--------|--------|-------------------------------|--------|--------------------------|--



E|--------------------------|--------------------------|-----------------------------|--
B|--------------------------|--------------------------|-----------------------------|--
G|--------------------------|--------------------------|-----------------------------|--
D|--------------------------|--------------------------|-----------------------------|--
A|--0--0--0--0--0--0--0--0--|--0--0--0--0--0--0--0--0--|--0--0--0--0--0--0--0--0--0--|--
E|--------------------------|--------------------------|-----------------------------|--



E|-------------------------|------------------|--------------------------|------------|-----
B|-------------------------|------------------|--------------------------|------------|-----
G|-------------------------|------------------|--------------------------|------------|-----
D|-------------------------|------------------|--------------------------|------------|-----
A|-------------3--3--2--3--|--5--7--8---------|--5--5-----5--8-----8-----|------------|-----
E|--1--1--3h5--------------|-----------6------|--------5--------6-----8--|------3--6--|-----



E|-------------------------|-----------------------|--------------------------|--------------|--
B|-------------------------|-----------------------|--------------------------|--------------|--
G|-------------------------|-----------------------|--------------------------|--------------|--
D|-------------------------|--------------8--8--8--|--------------------------|--------------|--
A|-------------3--3--2--3--|--5--7--8--------------|--5--5-----5--8-----8-----|--------------|--
E|--1--1--3h5--------------|-----------6-----------|--------5--------6-----8--|------3--6----|--
http://www.guitartabcreator.com
Guitar Tab Creator is intended to store guitar tab created through the tool. It currently does not support in-line text editing. Any text you place in here will be lost. If you need to comment on your tab, please use the "Tab Notes" section located below.