With You

(/) Slide Up  (\) Slide Down  (h) Hammer On  (p) Pull Off  (b) Bend (r) Release (v) Vibrato


E|------------------------------------------------------------------------------
B|-----------0-------------3--1-------------------1--------1-----------1--------
G|--------0-------------0--------0-------------0--------0-----------0-----------
D|-----2-------------2--------------2-------2--------2-----------2--------2--1--
A|--3-------------3----------------------0--------------------0-----------------
E|------------------------------------------------------------------------------



E|-----------0-------------3--2p0-----------------------------------------
B|--------1-------------1--1--1----3--0-----------------0-----------0-----
G|-----2-------------2-------------------0-----2--0--------0-----2--------
D|--0-------------0-------------------------0--------0--------0-----------
A|------------------------------------------------------------------------
E|------------------------------------3-----------------------------3-----



E|------------------------------------------------------------------------
B|-----3--1p0-------------------3--1p0--------0--------3--1p0-----0--3p0--
G|-------------2--0-----0------------------0-----0--------0----2-----2----
D|--2----------------2-------2----------0-----------2---------------------
A|--3------------------------3----------------------3---------------------
E|-------------2------------------------3----------------------2-----2----



E|--------------1-----------
B|--3-----------0--3--0-----
G|--0-----------0--------0--
D|--2-----------0-----------
A|--3--2--0-----2-----------
E|-----------3--3-----------
http://www.guitartabcreator.com
Guitar Tab Creator is intended to store guitar tab created through the tool. It currently does not support in-line text editing. Any text you place in here will be lost. If you need to comment on your tab, please use the "Tab Notes" section located below.