1st Composition

(/) Slide Up  (\) Slide Down  (h) Hammer On  (p) Pull Off  (b) Bend (r) Release (v) Vibrato


E|--12--14--10--5h7--7/10--12--14--15--17--14--
B|---------------------------------------------
G|---------------------------------------------
D|---------------------------------------------
A|---------------------------------------------
E|---------------------------------------------



E|--10--10p7--7--7p5--5--5/7------------------------------
B|----------------------------8/10--10p8------------------
G|----------------------------------------9--9h11--11--7--
D|--------------------------------------------------------
A|--------------------------------------------------------
E|--------------------------------------------------------



E|--10--10p7--7p5--5--5/7----------------------------
B|-------------------------8/10--10p8--8--12--12-----
G|------------------------------------------------7--
D|---------------------------------------------------
A|---------------------------------------------------
E|---------------------------------------------------



E|--5p3----------------------------------
B|-------5p3-----------------------------
G|------------4p0--2p0--2/4--0h2--2/4p0--
D|---------------------------------------
A|---------------------------------------
E|---------------------------------------



E|--5p3-------------------------------------------
B|-------5p3--------------------------------------
G|------------4p0--2p0----------------------------
D|----------------------0h2-----------------------
A|---------------------------0h2--2h5--5h7--7/10--
E|------------------------------------------------



E|--------------0-------------------0---------------------0---------------------------
B|-----------------0-------------------0---------------------0------12----------7-----
G|--------0-------------------0--------------------0--------------------12---------7--
D|-----2-------------------4--------------------9-------------------------------------
A|--3--------3--------3/5--------5--------5/10--------10--------10----------10--------
E|------------------------------------------------------------------------------------



E|--------------0-------------------0---------------------0---------12----------------
B|-----------------0-------------------0---------------------0----------12--10--8h10--
G|--------0-------------------0--------------------0----------------------------------
D|-----2-------------------4--------------------9-------------------------------------
A|--3--------3--------3/5--------5--------5/10--------10--------10--------------------
E|------------------------------------------------------------------------------------
http://www.guitartabcreator.com
Guitar Tab Creator is intended to store guitar tab created through the tool. It currently does not support in-line text editing. Any text you place in here will be lost. If you need to comment on your tab, please use the "Tab Notes" section located below.