Fur Elise (Beginners)

(/) Slide Up  (\) Slide Down  (h) Hammer On  (p) Pull Off  (b) Bend (r) Release (v) Vibrato

v v v
E|--12--11--12--11--12--7--10--8--5--------5--7--------7--8--0--12--11--12--11--12--7--10--8--5--
B|--------------------------------------5-----------9--------------------------------------------
G|-----------------------------------5-----------9-----------------------------------------------
D|-----------------------------------------------------------------------------------------------
A|-----------------------------------------------------------------------------------------------
E|-----------------------------------------------------------------------------------------------



E|--------5--7--0--8--7--5--12--11--12--11--12--7--10--8--5--------5--7--------7--8--0--12--11-----
B|-----5--------------------------------------------------------5-----------9----------------------
G|--5--------------------------------------------------------5-----------9-------------------------
D|-------------------------------------------------------------------------------------------------
A|-------------------------------------------------------------------------------------------------
E|-------------------------------------------------------------------------------------------------



E|--12--11--12--7--10--8--5--------5--7--0--8--7--5--7--8--10--12------13--12--10------12--10-----
B|------------------------------5-----------------------------------------------------------------
G|---------------------------5-------------------------------------12--------------10-------------
D|------------------------------------------------------------------------------------------------
A|------------------------------------------------------------------------------------------------
E|------------------------------------------------------------------------------------------------



E|--8--0--10--8--7--0--0--12--0--12--12--11--12--11--12--11--12--11--12--11--12--7--10--8--5--
B|--------------------------------------------------------------------------------------------
G|--------------------------------------------------------------------------------------------
D|--------------------------------------------------------------------------------------------
A|--------------------------------------------------------------------------------------------
E|--------------------------------------------------------------------------------------------



E|--------5--7--------7--8--0--12--11--12--11--12--7--10--8--5--------5--7--0--8--7--5--7--8--10--
B|-----5-----------9-----------------------------------------------5------------------------------
G|--5-----------9-----------------------------------------------5---------------------------------
D|------------------------------------------------------------------------------------------------
A|------------------------------------------------------------------------------------------------
E|------------------------------------------------------------------------------------------------



E|--12------13--12--10------12--8--0--10--8--7--0--0--12--0--12--12--11--12--11--12--11--12--11--
B|-----------------------------------------------------------------------------------------------
G|------12--------------10-----------------------------------------------------------------------
D|-----------------------------------------------------------------------------------------------
A|-----------------------------------------------------------------------------------------------
E|-----------------------------------------------------------------------------------------------



E|--12--11--12--7--10--8--5--------5--7--------7--8--0--12--11--12--11--12--7--10--8--5--------5--
B|------------------------------5-----------9-----------------------------------------------5-----
G|---------------------------5-----------9-----------------------------------------------5--------
D|------------------------------------------------------------------------------------------------
A|------------------------------------------------------------------------------------------------
E|------------------------------------------------------------------------------------------------



E|--7--0--8--7--5--
B|-----------------
G|-----------------
D|-----------------
A|-----------------
E|-----------------
http://www.guitartabcreator.com
Guitar Tab Creator is intended to store guitar tab created through the tool. It currently does not support in-line text editing. Any text you place in here will be lost. If you need to comment on your tab, please use the "Tab Notes" section located below.