Butterfly Waltz

(/) Slide Up  (\) Slide Down  (h) Hammer On  (p) Pull Off  (b) Bend (r) Release (v) Vibrato

E|--2--3--|--5-----------|--------5--|--5-----7--------|--------------|--5-----------|--
B|--------|--------------|-----------|-----------8--7--|--8-----7--8--|--------3--2--|--
G|--------|--------7--6--|--7--------|-----------------|--------------|--------------|--
D|--------|--------0-----|--------4--|-----------5-----|--------7-----|--------0-----|--
A|--------|-----0--------|-----4-----|-----5-----------|-----7--------|-----0--------|--
E|--------|--0-----------|--4--------|--5--------------|--7-----------|--0-----------|--



E|-----------|-----------|--------------|---------------|--------5--|--5-----7--------|--
B|--------7--|--0--------|--------7--8--|--10-----------|-----------|-----------8--7--|--
G|--7--------|--------0--|--------------|---------7--6--|--7--------|-----------------|--
D|--------4--|-----0-----|--7-----7-----|---------0-----|--------4--|-----------5-----|--
A|-----4-----|-----------|-----7--------|------0--------|-----4-----|-----5-----------|--
E|--4--------|--5--------|--7-----------|--0------------|--4--------|--5--------------|--



E|---------|------10-9-10-|-5---10-9-10-|-5-----|-7---7-9-|-10---9-12-9-|-
B|-8---7-8-|-10-----------|-------------|-------|---------|-------------|-
G|---------|--------------|-------------|-------|---------|-------------|-
D|-----7---|---------0----|-------------|-----5-|-----7---|--------9----|-
A|---7-----|----0---------|---4----9----|---5---|---7-----|----9--------|-
E|-7-------|-0------------|-4-----------|-5-----|-7-------|-9-----------|-



E|--10-------9--12--9--|--10--9--7--5--|--
B|---------------------|---------------|--
G|---------------------|---------------|--
D|--------------7------|--9---7--9-----|--
A|------7--------------|------------4--|--
E|--7------------------|---------------|--
http://www.guitartabcreator.com
Guitar Tab Creator is intended to store guitar tab created through the tool. It currently does not support in-line text editing. Any text you place in here will be lost. If you need to comment on your tab, please use the "Tab Notes" section located below.