Blue Flame

(/) Slide Up  (\) Slide Down  (h) Hammer On  (p) Pull Off  (b) Bend (r) Release (v) Vibrato

E|--------------------------------------------------
B|--------------------------------------------------
G|--------4-----------4-----------4-----------4-----
D|-----2-----2-----2-----2-----2-----2-----2-----2--
A|--0-----------0-----------0-----------0-----------
E|--------------------------------------------------



E|--------------------------------------------------
B|--------------------------------------------------
G|--------0-----------0-----------4-----------4-----
D|-----2-----------4-----4-----2-----2-----2-----2--
A|--3--------3--5-----------0-----------0-----------
E|--------------------------------------------------



E|--------------------------------------------------
B|--------------------------------------------------
G|-----------------------------------0-----------0--
D|--------0-----------0-----------4-----------4-----
A|-----2-----------4-----4-----2-----------2--------
E|--3--------3--5-----------0-----------0-----------



E|--------------------------------------------------
B|--------------------------------------------------
G|--------------------0-----------0-----------4-----
D|--4--2--0--------2-----------4-----4-----2-----2--
A|-----------2--3--------3--5-----------0-----------
E|--------------------------------------------------
http://www.guitartabcreator.com
Guitar Tab Creator is intended to store guitar tab created through the tool. It currently does not support in-line text editing. Any text you place in here will be lost. If you need to comment on your tab, please use the "Tab Notes" section located below.